  0
SECTION
  2
HEADER
  9
$ACADVER
  1
AC1002
  9
$USERI1
 70
62
  9
$INSBASE
 10
0.000000
 20
0.000000
  9
$EXTMIN
 10
-0.000006
 20
-0.001062
  9
$EXTMAX
 10
120.349998
 20
59.400000
  9
$LIMMIN
 10
0.000000
 20
0.000000
  9
$LIMMAX
 10
12.000000
 20
9.000000
  9
$VIEWCTR
 10
60.174996
 20
29.699469
  9
$VIEWSIZE
 40
75.820503
  9
$TEXTSIZE
 40
0.100000
  9
$TRACEWID
 40
0.010000
  9
$LTSCALE
 40
1.000000
  0
ENDSEC
  0
SECTION
  2
TABLES
  0
TABLE
  2
LTYPE
 70
     3
  0
LTYPE
  2
CONTINUOUS
 70
    64
  3
Solid line
 72
    65
 73
     0
 40
0.000000
  0
LTYPE
  2
ESTILO_TQS_0001
 70
    64
  3
-  -  -  -  -  -
 72
    65
 73
     2
 40
0.350000
 49
0.200000
 49
-0.150000
  0
LTYPE
  2
ESTILO_TQS_0002
 70
    64
  3
. . . . . . . .
 72
    65
 73
     2
 40
0.400000
 49
0.100000
 49
-0.300000
  0
LTYPE
  2
ESTILO_TQS_0003
 70
    64
  3
- . - . - . - .
 72
    65
 73
     4
 40
1.500000
 49
0.500000
 49
-0.400000
 49
0.100000
 49
-0.500000
  0
LTYPE
  2
ESTILO_TQS_0004
 70
    64
  3
- .. - .. - ..
 72
    65
 73
     6
 40
2.000000
 49
0.500000
 49
-0.400000
 49
0.100000
 49
-0.400000
 49
0.100000
 49
-0.500000
  0
LTYPE
  2
ESTILO_TQS_0005
 70
    64
  3
- - - - - - - -
 72
    65
 73
     2
 40
0.400000
 49
0.300000
 49
-0.100000
  0
ENDTAB
  0
TABLE
  2
LAYER
 70
    89
  0
LAYER
  2
0
 70
     0
 62
     7
  6
CONTINUOUS
  0
LAYER
  2
1
 70
     0
 62
    11
  6
CONTINUOUS
  0
LAYER
  2
2
 70
     0
 62
     7
  6
CONTINUOUS
  0
LAYER
  2
3
 70
     0
 62
     7
  6
CONTINUOUS
  0
LAYER
  2
4
 70
     0
 62
     1
  6
CONTINUOUS
  0
LAYER
  2
5
 70
     0
 62
     7
  6
CONTINUOUS
  0
LAYER
  2
6
 70
     0
 62
     4
  6
CONTINUOUS
  0
LAYER
  2
7
 70
     0
 62
     7
  6
CONTINUOUS
  0
LAYER
  2
8
 70
     0
 62
     7
  6
CONTINUOUS
  0
LAYER
  2
9
 70
     0
 62
     7
  6
CONTINUOUS
  0
LAYER
  2
10
 70
     0
 62
     7
  6
CONTINUOUS
  0
LAYER
  2
11
 70
     0
 62
     7
  6
CONTINUOUS
  0
LAYER
  2
12
 70
     0
 62
     7
  6
CONTINUOUS
  0
LAYER
  2
13
 70
     0
 62
     7
  6
CONTINUOUS
  0
LAYER
  2
14
 70
     0
 62
     7
  6
CONTINUOUS
  0
LAYER
  2
15
 70
     0
 62
     7
  6
CONTINUOUS
  0
LAYER
  2
16
 70
     0
 62
     7
  6
CONTINUOUS
  0
LAYER
  2
17
 70
     0
 62
     2
  6
CONTINUOUS
  0
LAYER
  2
18
 70
     0
 62
     4
  6
CONTINUOUS
  0
LAYER
  2
19
 70
     0
 62
     5
  6
CONTINUOUS
  0
LAYER
  2
20
 70
     0
 62
     4
  6
CONTINUOUS
  0
LAYER
  2
21
 70
     0
 62
     2
  6
CONTINUOUS
  0
LAYER
  2
22
 70
     0
 62
     1
  6
CONTINUOUS
  0
LAYER
  2
23
 70
     0
 62
     7
  6
CONTINUOUS
  0
LAYER
  2
24
 70
     0
 62
     6
  6
CONTINUOUS
  0
LAYER
  2
25
 70
     0
 62
     1
  6
CONTINUOUS
  0
LAYER
  2
26
 70
     0
 62
     3
  6
CONTINUOUS
  0
LAYER
  2
27
 70
     0
 62
     4
  6
CONTINUOUS
  0
LAYER
  2
28
 70
     0
 62
     4
  6
CONTINUOUS
  0
LAYER
  2
29
 70
     0
 62
     2
  6
CONTINUOUS
  0
LAYER
  2
30
 70
     0
 62
     4
  6
CONTINUOUS
  0
LAYER
  2
31
 70
     0
 62
     2
  6
CONTINUOUS
  0
LAYER
  2
32
 70
     0
 62
     2
  6
CONTINUOUS
  0
LAYER
  2
33
 70
     0
 62
     2
  6
CONTINUOUS
  0
LAYER
  2
34
 70
     0
 62
     2
  6
CONTINUOUS
  0
LAYER
  2
35
 70
     0
 62
     2
  6
CONTINUOUS
  0
LAYER
  2
36
 70
     0
 62
     2
  6
CONTINUOUS
  0
LAYER
  2
37
 70
     0
 62
     2
  6
CONTINUOUS
  0
LAYER
  2
38
 70
     0
 62
     2
  6
CONTINUOUS
  0
LAYER
  2
39
 70
     0
 62
     2
  6
CONTINUOUS
  0
LAYER
  2
40
 70
     0
 62
     2
  6
CONTINUOUS
  0
LAYER
  2
41
 70
     0
 62
     2
  6
CONTINUOUS
  0
LAYER
  2
42
 70
     0
 62
     2
  6
CONTINUOUS
  0
LAYER
  2
43
 70
     0
 62
     2
  6
CONTINUOUS
  0
LAYER
  2
44
 70
     0
 62
     2
  6
CONTINUOUS
  0
LAYER
  2
45
 70
     0
 62
     2
  6
CONTINUOUS
  0
LAYER
  2
46
 70
     0
 62
     2
  6
CONTINUOUS
  0
LAYER
  2
47
 70
     0
 62
     2
  6
CONTINUOUS
  0
LAYER
  2
48
 70
     0
 62
     2
  6
CONTINUOUS
  0
LAYER
  2
49
 70
     0
 62
     2
  6
CONTINUOUS
  0
LAYER
  2
50
 70
     0
 62
     2
  6
CONTINUOUS
  0
LAYER
  2
51
 70
     0
 62
     2
  6
CONTINUOUS
  0
LAYER
  2
52
 70
     0
 62
     2
  6
CONTINUOUS
  0
LAYER
  2
53
 70
     0
 62
     2
  6
CONTINUOUS
  0
LAYER
  2
54
 70
     0
 62
     2
  6
CONTINUOUS
  0
LAYER
  2
55
 70
     0
 62
     2
  6
CONTINUOUS
  0
LAYER
  2
56
 70
     0
 62
     2
  6
CONTINUOUS
  0
LAYER
  2
57
 70
     0
 62
     2
  6
CONTINUOUS
  0
LAYER
  2
58
 70
     0
 62
     2
  6
CONTINUOUS
  0
LAYER
  2
59
 70
     0
 62
     2
  6
CONTINUOUS
  0
LAYER
  2
60
 70
     0
 62
     2
  6
CONTINUOUS
  0
LAYER
  2
61
 70
     0
 62
     2
  6
CONTINUOUS
  0
LAYER
  2
62
 70
     0
 62
     2
  6
CONTINUOUS
  0
LAYER
  2
63
 70
     0
 62
     2
  6
CONTINUOUS
  0
LAYER
  2
64
 70
     0
 62
     2
  6
CONTINUOUS
  0
LAYER
  2
65
 70
     0
 62
     2
  6
CONTINUOUS
  0
LAYER
  2
66
 70
     0
 62
     2
  6
CONTINUOUS
  0
LAYER
  2
67
 70
     0
 62
     2
  6
CONTINUOUS
  0
LAYER
  2
68
 70
     0
 62
     2
  6
CONTINUOUS
  0
LAYER
  2
69
 70
     0
 62
     2
  6
CONTINUOUS
  0
LAYER
  2
70
 70
     0
 62
     2
  6
CONTINUOUS
  0
LAYER
  2
71
 70
     0
 62
     2
  6
CONTINUOUS
  0
LAYER
  2
72
 70
     0
 62
     2
  6
CONTINUOUS
  0
LAYER
  2
73
 70
     0
 62
     2
  6
CONTINUOUS
  0
LAYER
  2
74
 70
     0
 62
     2
  6
CONTINUOUS
  0
LAYER
  2
75
 70
     0
 62
     2
  6
CONTINUOUS
  0
LAYER
  2
76
 70
     0
 62
     2
  6
CONTINUOUS
  0
LAYER
  2
77
 70
     0
 62
     2
  6
CONTINUOUS
  0
LAYER
  2
78
 70
     0
 62
     2
  6
CONTINUOUS
  0
LAYER
  2
79
 70
     0
 62
     2
  6
CONTINUOUS
  0
LAYER
  2
80
 70
     0
 62
     2
  6
CONTINUOUS
  0
LAYER
  2
81
 70
     0
 62
     2
  6
CONTINUOUS
  0
LAYER
  2
82
 70
     0
 62
     2
  6
CONTINUOUS
  0
LAYER
  2
83
 70
     0
 62
     2
  6
CONTINUOUS
  0
LAYER
  2
84
 70
     0
 62
     2
  6
CONTINUOUS
  0
LAYER
  2
85
 70
     0
 62
     2
  6
CONTINUOUS
  0
LAYER
  2
86
 70
     0
 62
     2
  6
CONTINUOUS
  0
LAYER
  2
87
 70
     0
 62
     2
  6
CONTINUOUS
  0
LAYER
  2
88
 70
     0
 62
     2
  6
CONTINUOUS
  0
LAYER
  2
89
 70
     0
 62
     2
  6
CONTINUOUS
  0
LAYER
  2
90
 70
     0
 62
     2
  6
CONTINUOUS
  0
LAYER
  2
91
 70
     0
 62
     2
  6
CONTINUOUS
  0
LAYER
  2
92
 70
     0
 62
     2
  6
CONTINUOUS
  0
LAYER
  2
93
 70
     0
 62
     2
  6
CONTINUOUS
  0
LAYER
  2
94
 70
     0
 62
     2
  6
CONTINUOUS
  0
LAYER
  2
95
 70
     0
 62
     2
  6
CONTINUOUS
  0
LAYER
  2
96
 70
     0
 62
     2
  6
CONTINUOUS
  0
LAYER
  2
97
 70
     0
 62
     2
  6
CONTINUOUS
  0
LAYER
  2
98
 70
     0
 62
     2
  6
CONTINUOUS
  0
LAYER
  2
99
 70
     0
 62
     2
  6
CONTINUOUS
  0
LAYER
  2
100
 70
     0
 62
     1
  6
CONTINUOUS
  0
LAYER
  2
101
 70
     0
 62
     9
  6
CONTINUOUS
  0
LAYER
  2
102
 70
     0
 62
     7
  6
CONTINUOUS
  0
LAYER
  2
103
 70
     0
 62
     2
  6
CONTINUOUS
  0
LAYER
  2
104
 70
     0
 62
    11
  6
CONTINUOUS
  0
LAYER
  2
105
 70
     0
 62
     3
  6
CONTINUOUS
  0
LAYER
  2
106
 70
     0
 62
     5
  6
CONTINUOUS
  0
LAYER
  2
107
 70
     0
 62
     3
  6
CONTINUOUS
  0
LAYER
  2
108
 70
     0
 62
     5
  6
CONTINUOUS
  0
LAYER
  2
109
 70
     0
 62
     3
  6
CONTINUOUS
  0
LAYER
  2
110
 70
     0
 62
     2
  6
CONTINUOUS
  0
LAYER
  2
111
 70
     0
 62
     2
  6
CONTINUOUS
  0
LAYER
  2
112
 70
     0
 62
     2
  6
CONTINUOUS
  0
LAYER
  2
113
 70
     0
 62
     2
  6
CONTINUOUS
  0
LAYER
  2
114
 70
     0
 62
     2
  6
CONTINUOUS
  0
LAYER
  2
115
 70
     0
 62
     2
  6
CONTINUOUS
  0
LAYER
  2
116
 70
     0
 62
     2
  6
CONTINUOUS
  0
LAYER
  2
117
 70
     0
 62
     2
  6
CONTINUOUS
  0
LAYER
  2
118
 70
     0
 62
     2
  6
CONTINUOUS
  0
LAYER
  2
119
 70
     0
 62
     2
  6
CONTINUOUS
  0
LAYER
  2
120
 70
     0
 62
     2
  6
CONTINUOUS
  0
LAYER
  2
121
 70
     0
 62
     2
  6
CONTINUOUS
  0
LAYER
  2
122
 70
     0
 62
     2
  6
CONTINUOUS
  0
LAYER
  2
123
 70
     0
 62
     2
  6
CONTINUOUS
  0
LAYER
  2
124
 70
     0
 62
     2
  6
CONTINUOUS
  0
LAYER
  2
125
 70
     0
 62
     2
  6
CONTINUOUS
  0
LAYER
  2
126
 70
     0
 62
     2
  6
CONTINUOUS
  0
LAYER
  2
127
 70
     0
 62
     2
  6
CONTINUOUS
  0
LAYER
  2
128
 70
     0
 62
     2
  6
CONTINUOUS
  0
LAYER
  2
129
 70
     0
 62
     2
  6
CONTINUOUS
  0
LAYER
  2
130
 70
     0
 62
     2
  6
CONTINUOUS
  0
LAYER
  2
131
 70
     0
 62
     2
  6
CONTINUOUS
  0
LAYER
  2
132
 70
     0
 62
     2
  6
CONTINUOUS
  0
LAYER
  2
133
 70
     0
 62
     2
  6
CONTINUOUS
  0
LAYER
  2
134
 70
     0
 62
     2
  6
CONTINUOUS
  0
LAYER
  2
135
 70
     0
 62
     2
  6
CONTINUOUS
  0
LAYER
  2
136
 70
     0
 62
     2
  6
CONTINUOUS
  0
LAYER
  2
137
 70
     0
 62
     2
  6
CONTINUOUS
  0
LAYER
  2
138
 70
     0
 62
     2
  6
CONTINUOUS
  0
LAYER
  2
139
 70
     0
 62
     2
  6
CONTINUOUS
  0
LAYER
  2
140
 70
     0
 62
     2
  6
CONTINUOUS
  0
LAYER
  2
141
 70
     0
 62
     2
  6
CONTINUOUS
  0
LAYER
  2
142
 70
     0
 62
     2
  6
CONTINUOUS
  0
LAYER
  2
143
 70
     0
 62
     2
  6
CONTINUOUS
  0
LAYER
  2
144
 70
     0
 62
     2
  6
CONTINUOUS
  0
LAYER
  2
145
 70
     0
 62
     2
  6
CONTINUOUS
  0
LAYER
  2
146
 70
     0
 62
     2
  6
CONTINUOUS
  0
LAYER
  2
147
 70
     0
 62
     2
  6
CONTINUOUS
  0
LAYER
  2
148
 70
     0
 62
     2
  6
CONTINUOUS
  0
LAYER
  2
149
 70
     0
 62
     2
  6
CONTINUOUS
  0
LAYER
  2
150
 70
     0
 62
     2
  6
CONTINUOUS
  0
LAYER
  2
151
 70
     0
 62
     2
  6
CONTINUOUS
  0
LAYER
  2
152
 70
     0
 62
     2
  6
CONTINUOUS
  0
LAYER
  2
153
 70
     0
 62
     2
  6
CONTINUOUS
  0
LAYER
  2
154
 70
     0
 62
     2
  6
CONTINUOUS
  0
LAYER
  2
155
 70
     0
 62
     2
  6
CONTINUOUS
  0
LAYER
  2
156
 70
     0
 62
     2
  6
CONTINUOUS
  0
LAYER
  2
157
 70
     0
 62
     2
  6
CONTINUOUS
  0
LAYER
  2
158
 70
     0
 62
     2
  6
CONTINUOUS
  0
LAYER
  2
159
 70
     0
 62
     2
  6
CONTINUOUS
  0
LAYER
  2
160
 70
     0
 62
     2
  6
CONTINUOUS
  0
LAYER
  2
161
 70
     0
 62
     2
  6
CONTINUOUS
  0
LAYER
  2
162
 70
     0
 62
     2
  6
CONTINUOUS
  0
LAYER
  2
163
 70
     0
 62
     2
  6
CONTINUOUS
  0
LAYER
  2
164
 70
     0
 62
     2
  6
CONTINUOUS
  0
LAYER
  2
165
 70
     0
 62
     2
  6
CONTINUOUS
  0
LAYER
  2
166
 70
     0
 62
     2
  6
CONTINUOUS
  0
LAYER
  2
167
 70
     0
 62
     2
  6
CONTINUOUS
  0
LAYER
  2
168
 70
     0
 62
     2
  6
CONTINUOUS
  0
LAYER
  2
169
 70
     0
 62
     2
  6
CONTINUOUS
  0
LAYER
  2
170
 70
     0
 62
     2
  6
CONTINUOUS
  0
LAYER
  2
171
 70
     0
 62
     2
  6
CONTINUOUS
  0
LAYER
  2
172
 70
     0
 62
     2
  6
CONTINUOUS
  0
LAYER
  2
173
 70
     0
 62
     2
  6
CONTINUOUS
  0
LAYER
  2
174
 70
     0
 62
     2
  6
CONTINUOUS
  0
LAYER
  2
175
 70
     0
 62
     2
  6
CONTINUOUS
  0
LAYER
  2
176
 70
     0
 62
     2
  6
CONTINUOUS
  0
LAYER
  2
177
 70
     0
 62
     2
  6
CONTINUOUS
  0
LAYER
  2
178
 70
     0
 62
     2
  6
CONTINUOUS
  0
LAYER
  2
179
 70
     0
 62
     2
  6
CONTINUOUS
  0
LAYER
  2
180
 70
     0
 62
     2
  6
CONTINUOUS
  0
LAYER
  2
181
 70
     0
 62
     2
  6
CONTINUOUS
  0
LAYER
  2
182
 70
     0
 62
     2
  6
CONTINUOUS
  0
LAYER
  2
183
 70
     0
 62
     2
  6
CONTINUOUS
  0
LAYER
  2
184
 70
     0
 62
     2
  6
CONTINUOUS
  0
LAYER
  2
185
 70
     0
 62
     2
  6
CONTINUOUS
  0
LAYER
  2
186
 70
     0
 62
     2
  6
CONTINUOUS
  0
LAYER
  2
187
 70
     0
 62
     2
  6
CONTINUOUS
  0
LAYER
  2
188
 70
     0
 62
     2
  6
CONTINUOUS
  0
LAYER
  2
189
 70
     0
 62
     2
  6
CONTINUOUS
  0
LAYER
  2
190
 70
     0
 62
     2
  6
CONTINUOUS
  0
LAYER
  2
191
 70
     0
 62
     2
  6
CONTINUOUS
  0
LAYER
  2
192
 70
     0
 62
     2
  6
CONTINUOUS
  0
LAYER
  2
193
 70
     0
 62
     2
  6
CONTINUOUS
  0
LAYER
  2
194
 70
     0
 62
     2
  6
CONTINUOUS
  0
LAYER
  2
195
 70
     0
 62
     2
  6
CONTINUOUS
  0
LAYER
  2
196
 70
     0
 62
     2
  6
CONTINUOUS
  0
LAYER
  2
197
 70
     0
 62
     3
  6
CONTINUOUS
  0
LAYER
  2
198
 70
     0
 62
     2
  6
CONTINUOUS
  0
LAYER
  2
199
 70
     0
 62
     6
  6
CONTINUOUS
  0
LAYER
  2
200
 70
     0
 62
     7
  6
ESTILO_TQS_0002
  0
LAYER
  2
201
 70
     0
 62
     7
  6
ESTILO_TQS_0001
  0
LAYER
  2
202
 70
     0
 62
     7
  6
CONTINUOUS
  0
LAYER
  2
203
 70
     0
 62
     7
  6
ESTILO_TQS_0001
  0
LAYER
  2
204
 70
     0
 62
     7
  6
ESTILO_TQS_0003
  0
LAYER
  2
205
 70
     0
 62
     5
  6
ESTILO_TQS_0004
  0
LAYER
  2
206
 70
     0
 62
    15
  6
CONTINUOUS
  0
LAYER
  2
207
 70
     0
 62
     2
  6
CONTINUOUS
  0
LAYER
  2
208
 70
     0
 62
     5
  6
CONTINUOUS
  0
LAYER
  2
210
 70
     0
 62
    15
  6
ESTILO_TQS_0002
  0
LAYER
  2
211
 70
     0
 62
     7
  6
ESTILO_TQS_0001
  0
LAYER
  2
214
 70
     0
 62
    15
  6
CONTINUOUS
  0
LAYER
  2
215
 70
     0
 62
     2
  6
CONTINUOUS
  0
LAYER
  2
216
 70
     0
 62
     3
  6
CONTINUOUS
  0
LAYER
  2
217
 70
     0
 62
     3
  6
CONTINUOUS
  0
LAYER
  2
218
 70
     0
 62
     2
  6
CONTINUOUS
  0
LAYER
  2
219
 70
     0
 62
    15
  6
CONTINUOUS
  0
LAYER
  2
220
 70
     0
 62
    10
  6
CONTINUOUS
  0
LAYER
  2
221
 70
     0
 62
    11
  6
CONTINUOUS
  0
LAYER
  2
222
 70
     0
 62
    12
  6
CONTINUOUS
  0
LAYER
  2
223
 70
     0
 62
     6
  6
CONTINUOUS
  0
LAYER
  2
224
 70
     0
 62
     1
  6
CONTINUOUS
  0
LAYER
  2
225
 70
     0
 62
    15
  6
CONTINUOUS
  0
LAYER
  2
226
 70
     0
 62
     2
  6
CONTINUOUS
  0
LAYER
  2
227
 70
     0
 62
    10
  6
CONTINUOUS
  0
LAYER
  2
228
 70
     0
 62
    11
  6
CONTINUOUS
  0
LAYER
  2
229
 70
     0
 62
    12
  6
CONTINUOUS
  0
LAYER
  2
230
 70
     0
 62
     6
  6
CONTINUOUS
  0
LAYER
  2
231
 70
     0
 62
     3
  6
CONTINUOUS
  0
LAYER
  2
232
 70
     0
 62
    12
  6
CONTINUOUS
  0
LAYER
  2
233
 70
     0
 62
     4
  6
CONTINUOUS
  0
LAYER
  2
234
 70
     0
 62
    13
  6
CONTINUOUS
  0
LAYER
  2
235
 70
     0
 62
     5
  6
CONTINUOUS
  0
LAYER
  2
236
 70
     0
 62
     2
  6
CONTINUOUS
  0
LAYER
  2
237
 70
     0
 62
     6
  6
CONTINUOUS
  0
LAYER
  2
238
 70
     0
 62
    12
  6
CONTINUOUS
  0
LAYER
  2
239
 70
     0
 62
    11
  6
CONTINUOUS
  0
LAYER
  2
240
 70
     0
 62
    11
  6
CONTINUOUS
  0
LAYER
  2
241
 70
     0
 62
    12
  6
CONTINUOUS
  0
LAYER
  2
242
 70
     0
 62
     7
  6
CONTINUOUS
  0
LAYER
  2
243
 70
     0
 62
     7
  6
CONTINUOUS
  0
LAYER
  2
244
 70
     0
 62
     7
  6
CONTINUOUS
  0
LAYER
  2
245
 70
     0
 62
     7
  6
CONTINUOUS
  0
LAYER
  2
246
 70
     0
 62
     7
  6
CONTINUOUS
  0
LAYER
  2
247
 70
     0
 62
     7
  6
CONTINUOUS
  0
LAYER
  2
248
 70
     0
 62
     9
  6
CONTINUOUS
  0
LAYER
  2
249
 70
     0
 62
     7
  6
CONTINUOUS
  0
LAYER
  2
250
 70
     0
 62
     7
  6
CONTINUOUS
  0
ENDTAB
  0
TABLE
  2
STYLE
 70
     1
  0
STYLE
  2
STANDARD
 70
    64
 40
0.000000
 41
1.000000
 50
0.000000
 71
     0
 42
0.200000
  3
ROMANS.SHX
  4

  0
ENDTAB
  0
TABLE
  2
VIEW
 70
     0
  0
ENDTAB
  0
ENDSEC
  0
SECTION
  2
BLOCKS
  0
BLOCK
  8
0
  2
_PLWTQS
 70
    64
 10
0.000000
 20
0.000000
  0
TEXT
  8
0
  6
CONTINUOUS
 10
0.000000
 20
0.000000
 40
0.200000
  1
$PLWDWGGlBMVwAAAAAAAChAAQAAADt1Fw9ybJCsHeqMuSYQdED97d7MTK+Lp9WBmZau5Y+NsJkPDQNA5sx2C5ouM73q5TOMAFZHXBlktjjG2q3DmIfxoXv9M92xS+bPNxEasJinu59Y4p3niSjGtFHRD/36Ap+yqvuSSPBZH2lu77GypYc=
  0
TEXT
  8
0
  6
CONTINUOUS
 10
0.000000
 20
-0.250000
 40
0.200000
  1
$PLWDWGOX8ioMW257MHabHaKvFqolv7rmu2F2WFdqOB8EU1uhyS+zZrv6F5YrzZGlFsIQ4iCA8xnz1l3fVSbrC1rLomTXnpbUH7JV0B3TKTxcOvX83KhbJDh1UfJc7y9LXS3zW1ZKDTihZY2VOkXCQWzIRcEc7b6KnShA30SHoVRLaKTqQ=
  0
TEXT
  8
0
  6
CONTINUOUS
 10
0.000000
 20
-0.500000
 40
0.200000
  1
$PLWDWGIXa7p9icfm0w6b3Bua+90lnDuyYpFYLyqqw3kuV4gsLHrKV+C/XT3OiUI1BiabBqnKZwjK6yDHrG5i6uj1/ew5FM26mCoQ3dxTubdTuprE3kYE2qERwd1/XfmSuJTKImGr2GL3MRAjU9TAbcEhgemddhIJxQVUA2Zmp9gbBA39I=
  0
TEXT
  8
0
  6
CONTINUOUS
 10
0.000000
 20
-0.750000
 40
0.200000
  1
$PLWDWG20DWoh8mxk61BzXjewAkSsIAV0/UlT80Qq5Rs15476kynP1RceQ/S82dnD1YxF+ndKY5rzC9f/8/ellyUwfjEvcZ0UmEQ6WSxh508GifE2MgL2OfvsXV6II+DsmyEv5ciwS/i/CZDA8wiOKeph03RenR1S7LWoyDcaNZ/o8AGFg=
  0
TEXT
  8
0
  6
CONTINUOUS
 10
0.000000
 20
-1.000000
 40
0.200000
  1
$PLWDWGHrid+1aEpuIdtDDKNql2y2E12/6y4pU3PLeFreAOcd8eDjp9WyZfVS/OVG+DaVjzRS5f9xc6B8/IlN+54rTBQSW6hL/dRVbUGANfag+4Mm8xOTDLq4W4x4P4LnJ3IJteVjz4UttxzC6SEOcYFRrHmL8FdrGAqmeSCWp7W3DB8TM=
  0
TEXT
  8
0
  6
CONTINUOUS
 10
0.000000
 20
-1.250000
 40
0.200000
  1
$PLWDWGOHbjXlmM0vpzMcwqEc+MKEwrqmIlOKug3wVzryp92062sFh2ysXxS9j68RGZbxJFp6bYw3bos3yHMx3xPwPr1duxupaVdDbYO6WKFJaY5gVD5M0ulCnN5q0uGrWIU61if79UuTrErUFCGa3MvsxPYilpf927WSe6ujilxX48uTc=
  0
TEXT
  8
0
  6
CONTINUOUS
 10
0.000000
 20
-1.500000
 40
0.200000
  1
$PLWDWGJWg2FGGNdG1mpDlD49tcaiYCKXvZGod6c6uHdhgOMMew2bNBhkrXYJdyOkcLZoRo4BAsHQJTYizVHtG6Hxi7WtyeAMsxeG7Cw+7KmeY3yb+MjFCh1DAUXz43oB83X/MStOdQ5zMmRZuy97c0q8I7rthun3LVDpPk8Sog693jW/Y=
  0
TEXT
  8
0
  6
CONTINUOUS
 10
0.000000
 20
-1.750000
 40
0.200000
  1
$PLWDWGhwfr87RCJ6EPnPbB9y7gMJCMM3LW9NL8HmkPNcS2mh2yv4I8CFfRvCXFnB5yFphaSjZ02NG7bqCw0DZIFNuNJddA316RFr2S5Xl9rL8Eh9T/SDkVxcjlaP8i2DPoPsj1tZGo55+VMCe7wBiWetMe2P2AbMdvG2HqIjwKYYsMew0=
  0
TEXT
  8
0
  6
CONTINUOUS
 10
0.000000
 20
-2.000000
 40
0.200000
  1
$PLWDWG0Rwt/H2R9JkY3S6SAwnHbNPogEj7RmfX+bg6q/nlq/bx0SaZsrTOTuUo3cVMiKW7r/tdxqRwaV0AFkEUwqSfWksA6nLzUNpNjkQcBmz1SlZOR342pvPJeYLaB80VOyYgPeD42z2ts+RWu3NPcj5yZZXVNuZHvjk9jHAM0lFzXSI=
  0
TEXT
  8
0
  6
CONTINUOUS
 10
0.000000
 20
-2.250000
 40
0.200000
  1
$PLWDWGNbF+D3MsHxRO0rlnzdBQ+SXoKkHUduY00Vj5izelW5hrqXKoywlHNyhtw5d+23FLN5ZpN9ngFLrNSHTJW9Y1epmOATjJ92LBH+yirFQXnWTAhibz0BnbpxYLSaC7x5efIP4iwfFxI8Vwpy40wjVRR/tWj9nXG+JcwswmHEMJgnA=
  0
TEXT
  8
0
  6
CONTINUOUS
 10
0.000000
 20
-2.500000
 40
0.200000
  1
$PLWDWGsezsMG8dqkomqSiDe1V5uchMYWSVH4Duz2dIRTgKyRPnvc/qKGtMEpy3if6eOnJ2equBQA42X6hch0MrZ1WkE+xp33VIGlWX7dDGMQps1RMD/rfQ0aoNvBxUfkLyxwtwEBaEdoWCWomOO5IXtWOxtsdLIOvK1hzdWxSNRY5nmAc=
  0
TEXT
  8
0
  6
CONTINUOUS
 10
0.000000
 20
-2.750000
 40
0.200000
  1
$PLWDWGWJFkNkIt/d4kjPkPBxgOCEaYmMKOeCHgqlgjwQPLwG84Nuzrw7tEQIprgu8TyKU3rx16E7OAdnhx8VvZkSRsAfABgMHyEUFRtrSIefzTw+ojpO6nZR8AR6CbpglOx/Sbd9y2C0ZchCh6URBV8YtmQwf6ZVJWdj4DPvGGJkI8swc=
  0
TEXT
  8
0
  6
CONTINUOUS
 10
0.000000
 20
-3.000000
 40
0.200000
  1
$PLWDWGY81lg+zkmUfYAHhtPrbB5UCK4+feZRfZgP1m+cLgj9Yi5xFG5eX2ZD5sbDB1VOyHGLxkqPg5qUaDnUDC+1ClBAbJMPXz7jsTiYe+SJ6ro9e+jvZL2RSYADq8WVysQEMYSUUAXnaK2cksKv+eBGIJvIM+os5toSXeFBrU6NymsfY=
  0
TEXT
  8
0
  6
CONTINUOUS
 10
0.000000
 20
-3.250000
 40
0.200000
  1
$PLWDWGrbWjbWAVVgsgwHM/PyYzjp0tum1trj//4dYcaxWyFVxx/3yTXYbXXYVuDk0BadkbMcPz7H7TY46tn1JjsiRkn27SXmRNzi6qB+C+FSdjvd16wGNOfIT2xHzLc5hbftyuFu7tp82cWFc6ub7WiL9frpYruRg4wPSDFf2Ww+ua+CU=
  0
TEXT
  8
0
  6
CONTINUOUS
 10
0.000000
 20
-3.500000
 40
0.200000
  1
$PLWDWGQS/WFYqMegvC5ZV/h2gTd+5KzxrXuRKBQ3MImO4eSGz3mXzqbvDnmPYIiq9IeJiRucQkOjbDnUXDHs2wP7OPZs/sgVh2uuFzgmcj9zgzDLsUNSlZvpL7pPzCwAamCh2Emo3D3tx/O4TrCT75z7cEvqpk3yK0B/7Vk+M3+BpMXVI=
  0
TEXT
  8
0
  6
CONTINUOUS
 10
0.000000
 20
-3.750000
 40
0.200000
  1
$PLWDWGH5GWHpAlqO1+hiogmMa2qoLPnGBs1M69slIWGsorSUCBatFq1u6lypp7cgfpU67uxSaerD9qOPUTw7J4yyvrhBVASDXiCWix9XdECUQM/WxqRUObBi4hlk5vOpVtns2k8k98Y+UM/jhs5SAIOq5/h3qRe2imjjbK+pNNfqU0J7I=
  0
TEXT
  8
0
  6
CONTINUOUS
 10
0.000000
 20
-4.000000
 40
0.200000
  1
$PLWDWGyj8eIln/MvtSeXFG6gfx/QzKvi5xomfOXsWO0FER99q1MS7RAGe7/MPL6osxOa56X9Q6ELtuIWBqAQasQLEDa3yHul+tq1AynoqFXJxl3kyMDvnyw5Y/eqtk3adMNeApN75ujo5EEASKLvhGOwQ2kE5M7OE6bzQEzVqedYdyJ3U=
  0
TEXT
  8
0
  6
CONTINUOUS
 10
0.000000
 20
-4.250000
 40
0.200000
  1
$PLWDWGWJFZAiuMFdEkoSotCRFAKDYwcfEhWcydh5p7C129MMmay/GRMo6X8Cg1q5CDI/FA4qIlrmfDirkQK2CbCmZPly8//doo4AiUDjodZC54YftMVnt8mTrYqDcyibtXIpUIZyDwYhMbYvvVhwBq69x5Ujd6M5iMqfQZT36bck8IMVE=
  0
TEXT
  8
0
  6
CONTINUOUS
 10
0.000000
 20
-4.500000
 40
0.200000
  1
$PLWDWGz4D6w1tASVjJUwAGYyHR3AAoA9xrCxYHxsXuNXg5vGnxcge/04ZDzOke2v3nmP5GXWKbUvDCSpU+lfsT5lzVLiuceZcnafxCpsfJRBiAz/KUbUq/+YaN8PwTPFd5PI0NzMCzghIZKlOEG73mpaTHQv9ZOkCrMIsqIPDcobitRAk=
  0
TEXT
  8
0
  6
CONTINUOUS
 10
0.000000
 20
-4.750000
 40
0.200000
  1
$PLWDWGT06bG2uC81pWQBSR1Ui0pVLRTOPcQEpAgY9rcfIUE0cxfFJj6dIU9i7ZF4PtWyZQFIm1O8Vxmc1urOFVI3CTVzLSKAs94G90GoULHPuK2b2A3od6oe0pMFNxTZHRHne2sO6X2jDxCZWXZdcCvd/5wnfewcdoMQemLCYIERaQBcY=
  0
TEXT
  8
0
  6
CONTINUOUS
 10
0.000000
 20
-5.000000
 40
0.200000
  1
$PLWDWGgvkxzo8JrSnAnJquzEFYrOViXGr4ewVUAKuyqxzlMpLLys4b+FucI++KB5m6iPcYveVMjoULu9XZqyjFIxoL1GnPwymOJzJ//1xVRvGutIgts2TYwyfAXNZI5k70G+lr9AoN8kmplT9phKLHFMxpfn8YempPcxO4Da7TeO8Lijw=
  0
TEXT
  8
0
  6
CONTINUOUS
 10
0.000000
 20
-5.250000
 40
0.200000
  1
$PLWDWG4GL7dlD0nw75na/n7f/efmKqdWR42Bov5GFHBnyt4VdRlfs3c8GSLPC7m6QnlFfkaa065isACakxN01WRjpyyg9aYdBZrQSMepg5WjV6ySHvXJqDTuLKOmbQ14uwCcJRADZjec5uh0MFD/8cOZ38f1A5yzDw97Pl0tMp3M/d+vw=
  0
TEXT
  8
0
  6
CONTINUOUS
 10
0.000000
 20
-5.500000
 40
0.200000
  1
$PLWDWGnp4vYvulHo8xQl51uR/T+yyoswCtrPzt/SdrL6Pvqui+iEotjUpj+SfYAjhgAxDLDyQeQpwnC01pBj03k3c1lRbVEE4CUOGjpSJUtHRVndMIkABibLypfXRUnfOCWYx78wfdTZy6+ZfnbLqMp5jAGsKqXzzB9SOILNbWnM7/zAk=
  0
TEXT
  8
0
  6
CONTINUOUS
 10
0.000000
 20
-5.750000
 40
0.200000
  1
$PLWDWG/W5z3kFAyrkOQ119FEk1QHnNqCq+I4iDORELaZ3KU2H6MFKsLmAnBGY4qzSYQQ/fJBWLF66AcaxLtPTBUB6//x5KmvRprRkWs37IBQUABgiZjs/POTWLbi2p1VxM5XECa45twAkpj5vPUfuE4TSvO8jSJ6rjdvPn+qWbWSKBAt0=
  0
TEXT
  8
0
  6
CONTINUOUS
 10
0.000000
 20
-6.000000
 40
0.200000
  1
$PLWDWGS6O7O+Ju5JrAAGEAHYQ8P6H4XVzFiAgx+ghT+vz3eXRT93DNpkKUYB/ai1mfORPD2m3kNBHNH9L7obE5aULr+bv88PnhdyyIPXNFaOaDjvASfCcCddArk04llkApH23xXP/w4bUr0FuM/I3721utd1uKMUpagWJEzSJUEpIeOOw=
  0
TEXT
  8
0
  6
CONTINUOUS
 10
0.000000
 20
-6.250000
 40
0.200000
  1
$PLWDWGq1bO1R2R/592KVh3AfuzqN3QmNXkTU+x2oFBAEweqrnYjc+kxqszf0J88ugcDYl/KvHvbnRwteZkt9JMPNMMRnF7Tb7hoOzx5CGq/pgWAERL9jFU9gCuTV6olTNV3u7RFR/a3UL2sXu2b/wh4+5q0ogUecjzPxWLcpEC+Wub2LA=
  0
TEXT
  8
0
  6
CONTINUOUS
 10
0.000000
 20
-6.500000
 40
0.200000
  1
$PLWDWGmrs1XHUWW+yD2unp1Rm6U2kwTwtK6DmThrX5e3celKt2ZJU7M1Q7XGoaeRLcJkqKADpcw9/iNwZE5t6wY/pXqFhSuCFmCuxVLp5tK2+UXf7mtDR8+DsrnyXx3AJpZ6O3N02rUU2UZorQLyA1Zz54jXsys8xqVmLOlR6kB7t04iU=
  0
TEXT
  8
0
  6
CONTINUOUS
 10
0.000000
 20
-6.750000
 40
0.200000
  1
$PLWDWGLJmVk27INUBPQo+xZ9WtIux0hoxFsUdAgJKPD2BoJJWySR0jYBup9GujBNeHPX/Pyh4tAo/FgfCLSbTZwTBBUx2yFoCkqDO6pk2BgJKM2MSWQ1Us5Y7VoySdnAlUYUgOnQIb0EZzkMCSIGpXOy9T+spHi1wCAXLVcW24tQgXAyI=
  0
TEXT
  8
0
  6
CONTINUOUS
 10
0.000000
 20
-7.000000
 40
0.200000
  1
$PLWDWGRT1/4yc2FateJtMHU7s7rq4QnzGXT+3Ckiy22ssCvZ7JCaYGu/5vKwpks0TtoiNOYQH71Mh2XiTnobMotS3IUrb3vBw5hwbj7FruNDApKfyYq9uEoH9Y7jg8eEVcErcKVQUb0+tGcrgFDIZn82JBqxcFsLKSaGycQVrVMlxkLWM=
  0
TEXT
  8
0
  6
CONTINUOUS
 10
0.000000
 20
-7.250000
 40
0.200000
  1
$PLWDWGdsmOfC0OphHiJTP/CUxr2WOk1cLCspyBr0O1WrY7CZCpO3lDqhGNpMus5aNeXKGCcNd34+zIdLbFluRrm+7fDs1SxcGYPf9epmAaZXMjAjPcWMGRBJQaQQlA4Xq5SGgoe/fUuvj1TO0b32pCftmpMWSdFilhLjGXai5mNf6vHM4=
  0
TEXT
  8
0
  6
CONTINUOUS
 10
0.000000
 20
-7.500000
 40
0.200000
  1
$PLWDWGGsuiOlR9P4ljEA+d1GAliwMWZcPxSQaQTrggyECViRuLH9grBPjKiBOW1LM3vQGEjxrJKaCopwO+l/8lluTERU/XAuQ1hFZT02UJTTMymO0/46+HvLe/AjlZ6nTC9e9GaiN7W5GCQNR6bwtthxBzj6z1Y/myBoss/qqG92jIXa0=
  0
TEXT
  8
0
  6
CONTINUOUS
 10
0.000000
 20
-7.750000
 40
0.200000
  1
$PLWDWG1aqbpPjTUIBG1jaJxwoqQMavGyC7pD4OGWbqv6IyrI3kc+UBFULAysJy3ZPHCgXarLCWfAud0ztm0TlknSjWzcE/grOggMzCHbBSXchnrVJ970ZiS5+ebBXK/t8oH5M4UNmu4eWybYDvP7yWHvoctp/WBByTetIVjjf+3xfnpPQ=
  0
TEXT
  8
0
  6
CONTINUOUS
 10
0.000000
 20
-8.000000
 40
0.200000
  1
$PLWDWG6qnNED+AoAAw/6/RE5QmBC6MUJCZ/AuvAV4Szf6Otp6TccJ1ZSxoRUQJuztVevOvfR7YRTw0D1d2i2GLfSHSiAogWXYg5qyOagFEP5bpwQlN4OlcvJEDV/zbUrEhQpUQKnMsKzMkgfK4+ElMkGzAkEdsUN+J27KvoR9XlVGs5DI=
  0
TEXT
  8
0
  6
CONTINUOUS
 10
0.000000
 20
-8.250000
 40
0.200000
  1
$PLWDWGcd+SF0QLHY75gOtGkToH+OaimpnC2aVer/aQAc/VRbVkWnZ7RHTigEMcpk5wU3SniVRm7M0jt81KKCQCtPdqaCNCpA4hiywLeSvIrRnw6hFUXvwUzduxuh1mrz4789iwVv3Xu0pdDXT3W7eW+7lPOfK+JuBx9XP5hbstxrqH80k=
  0
TEXT
  8
0
  6
CONTINUOUS
 10
0.000000
 20
-8.500000
 40
0.200000
  1
$PLWDWGlXjFmWEoph7wklrDr1cDhNAwnRspw4ML388ZyL7OKX7uCxqNcFwd7B42vw6nvqUJ7zXPppkVLHtXZNRV5r8Mn2E5Cu0v1mPjW5GW/wHyWYgA4tr4Ym0S6loqaWen0+apOdQAIVAKd4AzcU68BzrkodR0N68h8BiazsmDFnEk5j8=
  0
TEXT
  8
0
  6
CONTINUOUS
 10
0.000000
 20
-8.750000
 40
0.200000
  1
$PLWDWG0Q6fKfxxJkDxPJ/5BLbaq1jfqpo6qIKq4MI52RQCvKtU82u7PJRiYk7pXNu9riGeSjNDKUY+6/Ty3KP4Z5qbFmXqEWOIIT+DHvk5qVM025/mvm060B4l7B1aC/zizf43iFWxREqHww9EUrvT8dG3OLvw+f4WaFbo+dhmfBpmOE4=
  0
TEXT
  8
0
  6
CONTINUOUS
 10
0.000000
 20
-9.000000
 40
0.200000
  1
$PLWDWG53IwX1T0zVXLxsmCbBN5Zd7T6zBp2r488nbkiE14U1N4z9XoH8bntIoIYF86vxu4uzbze8P/2ss/G7DlWf2mrGFriLXXCSJCt+pGsGe4IkKCoSKU8vHcUL9abU9hKKbA3wVqIVDG5JelKbxxo8oD70EIu6IN/e8p3ZJ0Ee9bAbs=
  0
TEXT
  8
0
  6
CONTINUOUS
 10
0.000000
 20
-9.250000
 40
0.200000
  1
$PLWDWGXB37HGra4JP9hNYPUx+11SYO19ZlssvFk/FNv9VZOvPWiv00Qoo0IKilTAUzbShhnIErGXaEckc6yzMzvrJ7Bnae6nRv1iL602ctqORry4uHWVHOmzr0K/eBkP5PO7gdbJJt7K1uBb8gXPH6vQYHGkPhxjUnK/N1aI4EwDHJY2M=
  0
TEXT
  8
0
  6
CONTINUOUS
 10
0.000000
 20
-9.500000
 40
0.200000
  1
$PLWDWGWvjwLVPr8lhF90ek98ml/Hk7PbpLalGdTFSoDH4MvgHUryFxPyU91cd3UzGeGeF6dibc7ZP6KWDJTHygpC9shA/OtrsE3q9Nez9uIkcy5Cr6hQJVIL5rCdHxpLwDMt6bGrvBZATHnNVHK1V+InithjLqLWKSJRsQFltRt4COMUA=
  0
TEXT
  8
0
  6
CONTINUOUS
 10
0.000000
 20
-9.750000
 40
0.200000
  1
$PLWDWGcFDTM4wQX6F7XAH8naQwQIjclZJc8NqD55tTxZQFrD7PKxTgz36qlrEmaCS9bFCcb+e6X2uG54Oozkf+fkOKag6MNmJ0UDuQpLojgZWJK9PnpaWH/quaJqt9INkZPn3rmcqUixcDDFT16daP1ZxFG5IRn175IWf7EhxN112kpzU=
  0
TEXT
  8
0
  6
CONTINUOUS
 10
0.000000
 20
-10.000000
 40
0.200000
  1
$PLWDWGhCRE0qHobDMdGq8w1D+Xu55rR3c/AByW9z7ESwwMWBbNztB1zlLVVpBNJu4qCsKhbKNF715UkdBoD3+ASWhhtEtT0BjnPbpgmbusU5yPDctiK1S3r/9sfuXlRJxtGxJcYcWJElhZOLr+ooAVrdDve0Qh3A/xkw6SBk+C098oUbY=
  0
TEXT
  8
0
  6
CONTINUOUS
 10
0.000000
 20
-10.250000
 40
0.200000
  1
$PLWDWGxtgi087PrqEJpWqxu9apvCqnGi9qiUmVl1HpLFxWoG0gUUDu4J7N5Kf4GGdAxzELTGWhbv/maehh9oh6P5c41NsJup6GW3Rlyx5UDgyCIvVSf7JnkMbU3pts/CJWzGH7/ORNDL9oGxyF2fdWqr7lccg7vQrZo3rRvyhhywMn8xc=
  0
TEXT
  8
0
  6
CONTINUOUS
 10
0.000000
 20
-10.500000
 40
0.200000
  1
$PLWDWG1vib7ZjRCbpivd1uhgEKIK7S2daXyTCYItHBaQad6dAAGmg/Ahxdjgdl+wNcT1PLqgH8fJYC1wt7nKAQN/ErCrWSDdu+1Un7nNbc2Bpd3Abwp3dLZpI5oJXBDmE3BxS2/PdQ5+7dvA06E7qOnLDah9uYpbN7m5gjpSu80dGbDUw=
  0
TEXT
  8
0
  6
CONTINUOUS
 10
0.000000
 20
-10.750000
 40
0.200000
  1
$PLWDWGGTTK8+SwPkCMOKvihdeIryUg8G8DnTpA9zM51hnbZVpQeRDyU54zQAihbdkGWNJDOvM76cljMECv+mvpaXYxo+FtKh32Mu8Cdo7/tagvgk/rIkJIc2Mc27TWwR7hcvsr53mTpHdOzuR28WkJyUfkJyqQQL+TqsAm6Z9v8/uuwqI=
  0
TEXT
  8
0
  6
CONTINUOUS
 10
0.000000
 20
-11.000000
 40
0.200000
  1
$PLWDWGPze6FUddymFb8FWuud77hhBY7QS+ysyB42CQHDyLGnHr3akaetdyu6Pd/j56RUmwObiD+rHNkGZc37/W+1BczOLii+OeWU+3IyuAuMF6N/DdNjcuq2ZxTRsdBtY3Dv02wp22BE5kq/kwdBM4pbGMCYDNc4B6T1sejmPEcfal+fM=
  0
TEXT
  8
0
  6
CONTINUOUS
 10
0.000000
 20
-11.250000
 40
0.200000
  1
$PLWDWGy4dAOdCLp9vIGAYPZjCyzvpvzGWXWJ0+4EBF/PNPQUyqTaZaf2TeiT6GLiqd/RNpGH/7a5YQIntoeuwVsmMvwfiBWpLgRWkXnQlgEuvTm0XF10GQxmMhUvfoF1fnu05wteMGc5X3xf3c5WC0JWz1rXR+4VGq0UoysKkoGQX9zQs=
  0
TEXT
  8
0
  6
CONTINUOUS
 10
0.000000
 20
-11.500000
 40
0.200000
  1
$PLWDWGZrEaduKn1NxLU7e24wjG69yXlOYM1R9U0IYh6uFE/Vw1bLQGils7uBvRn38+DrramAKtfQotLSTVDSUi7wdT0brPBvR1xkcGt2cSlYSWLerL/eEi3IYhukWbynjS1HhCdkrlXjZuql7diV7pIXrU1mIo5QgrcEezwIOn3Rhyy1w=
  0
TEXT
  8
0
  6
CONTINUOUS
 10
0.000000
 20
-11.750000
 40
0.200000
  1
$PLWDWGcJ075XAUYV5Z9F+WtCLE+9tosOU28kXseCEI+blLPR8ZAYCWZVHBzPK7pq2a2EVA8VpNX1hh0X3DlYXeGKEnxj7cyZc16UXzcW9DKSRwRROPvtQQhy7+4Ehp1sNC9xmESEd/gG1yrIUVsmKkP/p9WnFA48XGKuDco9eYtXoa8HA=
  0
TEXT
  8
0
  6
CONTINUOUS
 10
0.000000
 20
-12.000000
 40
0.200000
  1
$PLWDWGvJGGma/7gQyJUCks+h9ax3bQUT55xfUkNGnz5HM8Wb1t8JhIqoin6rqu9bNmIsqMwCq5W7jJJkQWdqMqS3v49DBJ2ZL/gr4cIEagQ03WYEG7JhWMJX1ZjZ75smJKJvvfZirl23GvIgal9b0CSHnuupfKsZjeIVXUw097XC1Y/4Q=
  0
TEXT
  8
0
  6
CONTINUOUS
 10
0.000000
 20
-12.250000
 40
0.200000
  1
$PLWDWG8YtDhnW0sxE5I6vOFfD8nIfSM2XEIYhORLblk+EGu2mtSdyue9N+an3YkckJdTHUIoMGO8fqgJrBPnoSsF+1L/mp0C3bo7tnPd46mRUD4x6eXtJjicAyCzX3Wd/brOSXWd4Beb0YSTX9+Hb225gN89BvQE13bQKJAfS9KTtVjvI=
  0
TEXT
  8
0
  6
CONTINUOUS
 10
0.000000
 20
-12.500000
 40
0.200000
  1
$PLWDWGMMJmBhQxLRT1u2jxy9WQrDKnpAgElYskNnJhLhE2AAkFwY7AZ6Vm515Bvnl9ucolvgUvnSVJl6gT2CNWOXrRzu1CUAlkDFlr56Ka7Yb2i2qlyAZmjGXvlQHjqFw0yEb9ZKm7hxcY1JousAxfXGqVW33RWK4aD/twq68m/TEnaww=
  0
TEXT
  8
0
  6
CONTINUOUS
 10
0.000000
 20
-12.750000
 40
0.200000
  1
$PLWDWGLSCvjJO70C3w/8JHSeGIdMObiDLdYfH3oeRYmCQqYuAWHCAEiG1GQItRwb/BUU+QW36kgE2Q3NShBGRbM1zD1vZ6GAFZFdgN2DL35aWwnQlsIZ8G+XW4XkBpErVoimIdCicqypUQT7So936bWkhw2abNPNt9+Bhinp15Ye9upGI=
  0
TEXT
  8
0
  6
CONTINUOUS
 10
0.000000
 20
-13.000000
 40
0.200000
  1
$PLWDWGAItfgvzCuNbWFiH5DEYNOS+JQZ8jjtxhRgrU2bG1/7Zo+P1vnaR8JIyD8lpkfZpFuLlCTPal2o138er/iFXTVNcAidnUX16W61kkLWp0kg3nQj/K+mevqIlLAU9SngimSCh81c2SAeT79SvuPlj4Z/sbUY7+KQdOhmd9+mmXQ/4=
  0
TEXT
  8
0
  6
CONTINUOUS
 10
0.000000
 20
-13.250000
 40
0.200000
  1
$PLWDWGoWxWB9D2dr4vbenG3ekxHy8v6sEyy5Fpj6XDe+dqCRbxTS6oqch+uq8gO5yqW1UrRQsX6lfhOSp4QJrKa/CZFlTdMHnRL4KNETcI8TwHhTH/q0tAq6db9yEBBSLDt0Cn86B+zIYJ9j2IKGwtdeA8gsSCJ1M5lfZTB3YmJqqg1NQ=
  0
TEXT
  8
0
  6
CONTINUOUS
 10
0.000000
 20
-13.500000
 40
0.200000
  1
$PLWDWGK47Wa166l4yiifJ3r6TXSidxkzRQjlSQmOtRs8O1z4HM2wFDgKVzbHmRd1XTKpLkR0dhB64/S8YQo1jhtXXz8SoGYLG7FmECutCpA4jD23sFpulj7NsAQAe2H0pbSDV9FuWd6F5BSjWmVQFpSA64wFRn1eJH9YKe1BXhOs56Y9I=
  0
TEXT
  8
0
  6
CONTINUOUS
 10
0.000000
 20
-13.750000
 40
0.200000
  1
$PLWDWGEohK4CyEpUbDVfyd11D12yyTgRP4oRBtLOtu8BvhRkA7Ky1lCIZdAR61sQ8SQMJ8c5I3GDNHApUtwpVyVqQQxBBk7t5dB8dYB3J7nqVnPHMloHyr5WwQfjoSG9RZFCOzMXtfvBH10y9c94lVva/TAUIJZgv2UDODf7D8SolXPiI=
  0
TEXT
  8
0
  6
CONTINUOUS
 10
0.000000
 20
-14.000000
 40
0.200000
  1
$PLWDWG2PopWHDKMmRDMggTXVIMGr2ursBpBrxC0ehfQx34Ve46BGWW9RGf3dIyUGgRBpgkmcOCSWmiPQd34GDJ4ITLjtUaJsl0R7QJmURXgQSQqRs7/LqSctdV5IXVPXUjh5szpVvwWYF+2BNLCnFjJq5jrBH+SY1r4U/XtoQ6cGu6pHA=
  0
TEXT
  8
0
  6
CONTINUOUS
 10
0.000000
 20
-14.250000
 40
0.200000
  1
$PLWDWGI0n5+doL4kCGr7B8wDGPeZNQA2UEAICKY6FMjPzIHYLLREdEV3J+ZCZJBzG+w8KI5SFgEXVXxEIxVTjOXXlF4xppup/SyWSyQdWi0UicR1HeAzd0YbdFy2q2EYP/zSw2P2+avHn0i3Wpi5zglE2ULO87GKf12r/E5uM0b7OPw1Y=
  0
TEXT
  8
0
  6
CONTINUOUS
 10
0.000000
 20
-14.500000
 40
0.200000
  1
$PLWDWGLOBcgz+XUfkz660fHX5JHF6l5FKtpVvs03Aa4HB2s4qT75v9TpqYxs45oW+o6QbtlUDTNyqgeF6GvKCGnSACrVHd3Pp+3PDV3dt2G2QNz2prV1Om4nAANGO6PNHZtUkw6qHlsgW0kGvmPXVIkSOCQh4WPWbQrHFBynZEmWumBLI=
  0
TEXT
  8
0
  6
CONTINUOUS
 10
0.000000
 20
-14.750000
 40
0.200000
  1
$PLWDWGpNiygz7JJ8fLw9Mc5L6eqr5OTDN+2kZAYjZJZknFdRkM7mNFGYWdWcwbWeUj4D+CgPOU1xfi8Y96Hckm41FafAQI9Ycstgi5MUB1zPGaDylslspsUePcYPYLFWpxS1y44uvtIPcijs1qXNwFkG/r7Vft/PgKQS+yjMYpmGKFVww=
  0
TEXT
  8
0
  6
CONTINUOUS
 10
0.000000
 20
-15.000000
 40
0.200000
  1
$PLWDWGW5a7xt0yxuj3FKRPsV1UkvTASJqXRnfowdK8iH/fW0sucr+OEQJ1feUiYRQmTX1Ftx63xLdIa7vMdWay2GVgdXQx4ZHdg6xNMul9BYSemmCGgK6UVQs//C7IkX+Raj5Gmx6mdpP47WGxI5xydmxuhjKYcBeaAbavrQ6c8e04FDo=
  0
TEXT
  8
0
  6
CONTINUOUS
 10
0.000000
 20
-15.250000
 40
0.200000
  1
$PLWDWG/UtZhBrhXzW03l/aojyPMXSIPkM1Oa1t4shabZsoU1u8JODxEyAM/tgXlXOQgadRiau881uOd8jn9IBEy8XTZeL/p+vbep56XYvgLheZ6bb6f7/p+GG77YO28bIEZ4Oti3IcGnWMglrPRShG7fMesCx4FRQ77ivPEIAaAfD3NhI=
  0
TEXT
  8
0
  6
CONTINUOUS
 10
0.000000
 20
-15.500000
 40
0.200000
  1
$PLWDWGUoggo8/akgA0TpGx8041knF0fLrjLmb176L2wd6bra9f5tnhboNBStOBLGOzRwfySCqpmdJif6fu1tUhR+JW07PkK3ncl+zsLwfUZEryVbZLWap7wdEh6xaBxVVwKfwJCqCMd1ilJnO7wiWTZyFTIy1szmmPewmuKn/g5HWAXkU=
  0
TEXT
  8
0
  6
CONTINUOUS
 10
0.000000
 20
-15.750000
 40
0.200000
  1
$PLWDWGagCL5uyiOCI43NzewmxGQCj4VJisNf+ObL927+FHK7T2hgHQTyoU6DGvEjFiqswp+9FNVne4o/XHtEUAUdb91N3EyZBgzUiWi3I2qezMpoc2rxZC5qlFDDfc7Z3CeAmu1S3jypXFUkk2IbuELIbu1Pwm+tkmXA/dNmUnjSgcZ7g=
  0
TEXT
  8
0
  6
CONTINUOUS
 10
0.000000
 20
-16.000000
 40
0.200000
  1
$PLWDWGGdNZBnpJ+fpcDpzroFD+EQJgZl6S2AaFfsMukXCNQOil4LrmUczxld69/b1OeGsMWaJKzEZfhOq73aJWQxpiKghkW05Lq4QSiyuRPpt6DUyCqv1YIYqNoa3U4Q44z2IH687CaZw8z++kvyJ3ZyYZNFlfSHvqE8latWRdVh/HLiM=
  0
TEXT
  8
0
  6
CONTINUOUS
 10
0.000000
 20
-16.250000
 40
0.200000
  1
$PLWDWGlImCXyz5hRaADCd5UV84SAb3ZSqakxVoWCIRNl7cuIJNVlyMhUYKqtKCv9fJcZwpDycMRK+zmhDwrW4+IiQvPa7HhaD6Zw3WLN5Xubvcv3Nucm2YxUhrhHYmFdWhCB0ooqTbSv0fVG0cGXc04v64myFacO0xoVj5pAelqNSn//w=
  0
TEXT
  8
0
  6
CONTINUOUS
 10
0.000000
 20
-16.500000
 40
0.200000
  1
$PLWDWGxRKV5uyjYM0NzaV/bOaeLJYD4B76EV16ihBNHzkwIyK1w/uBUe2mDG+sPZHtUZMZAWQ5evVh89i8XTP/2avV3FuujH6oGt9eFKXNaGfOE3/jAgAQDyEY/hXu4CoEq+HYY1gtpGX9sX+6ZUXXNV5JYqECqeEUScELdpYebKUfddk=
  0
TEXT
  8
0
  6
CONTINUOUS
 10
0.000000
 20
-16.750000
 40
0.200000
  1
$PLWDWGaTL22TcHi0ZQuYBp9AcGvXAwvD5VQesZlV535J73PO+vwBvRY+JsdGe3eqtvH1/Aes+q2ffmTSijjuzjgR3SU/YvzcCbKeO+twNiPRmBfH3pURhnEAOZ8Y8qyqhPvMxz2n8/O72V2bvl2G6UmD9qiTD5rpsUiIg+wOs+tdzt+J0=
  0
TEXT
  8
0
  6
CONTINUOUS
 10
0.000000
 20
-17.000000
 40
0.200000
  1
$PLWDWGOBw6TKGtAa0nDfGrpYZb1ftGLVGBVXKLfyjlW1mjpwUlH+aQWHovYKC8W9hTuJg7gJON/DSJ0QkCeoVxGl7Z5k3I29RQSDFv/jhZPzBE9gQmwSnDKwccJ+78FAenvA6QZvDXIE96SvmV53Jvp/qd+o2rB71oKlSzA5ICv9br1jQ=
  0
TEXT
  8
0
  6
CONTINUOUS
 10
0.000000
 20
-17.250000
 40
0.200000
  1
$PLWDWGzNRjOhEga5DwrnRKk2yLqZl0k3WmyXeiMrvBzlWiUiaHDxuDkfrTcLIxGsQar1FNSAInywWr5sXh5eFsIE2gbdGRMMqCLxbIki/avYnj7ahcjmi62O/9cAC7wpZNVt8a3FWjJnL7RdhQ6fcELM8oCNRnYPJuyfKJGvgiLIwpNUg=
  0
TEXT
  8
0
  6
CONTINUOUS
 10
0.000000
 20
-17.500000
 40
0.200000
  1
$PLWDWG+KnGKVxZzoEvJ09Tfhoa4UabZ5TMKblKbZ4ukVHYlTsGmYWy4vMufzUpyRbhis2AjDYqf1cRlLFihIOIXgoslIWF0T4JRiuvOB+zUMgNPaPzRbOCAoK2w+WVau+V+PspL9QdBswMzXGLsru+9iYsGWeVlKaoaOlfpz5AXe5pZdI=
  0
TEXT
  8
0
  6
CONTINUOUS
 10
0.000000
 20
-17.750000
 40
0.200000
  1
$PLWDWGEC4GNN85Jb9IxF5sPIBvHW7LTtuufPz2pGCs7LXg8IpYy8PekqH+W0nBKAbPpKts6NYKzUe5MdXqVLXid4lPlgZ9d1bSF73UIQWNH1xmXPiyGF7V+sqVcBUVNE6Q48j4UPO2rKtd6rHhRVPL1WR7wQmLNWPKEWCNodqEmNQnTrA=
  0
TEXT
  8
0
  6
CONTINUOUS
 10
0.000000
 20
-18.000000
 40
0.200000
  1
$PLWDWGFJwWRC8iUJtmOPgoDEemwmK9gi43ARgKspgKviw+OHyGmTlXMBaD2Dtf7axaYEVys6vV+z3zJiBqBJRUnRPhkSxxQc/rMehytxqEmXx/OU0oYXkKM+Pb2+b3K6knZcx5OoZba3NZtRJGtUu7+jflZyqo+xaDzk/OXfvYSgflXE8=
  0
TEXT
  8
0
  6
CONTINUOUS
 10
0.000000
 20
-18.250000
 40
0.200000
  1
$PLWDWGtif1N3NVJv8eGD8+tuxF3CYHTZDKQKmr7f6BIifE0FVkcr4J98EKafy1IpDFY8LML3I+DAcKCCfzjXBK2MqW7SMdBEhsledDePtRbM/1GVKbCO0ob1LsUaGEJTWFjvbOFtI1DIP56cY1b8LRfcz17cWRLxuJYB2L1koBQjB+4jI=
  0
TEXT
  8
0
  6
CONTINUOUS
 10
0.000000
 20
-18.500000
 40
0.200000
  1
$PLWDWGchHK1ZOmk/SbCfuhvYTZHlvEhADYHkmtHC6ZlRo2NuxVR1TUX/XVMBD37r/doV72htewnXayxVyWZVvsdoOniaPOc7ujdoP021rqw7rPa5G2Ic97XmWzuGGoqcnut0GyYpRfHY+fnA9gaz9+RpzQVIyYlXEOrpuYl/gS9NXdkSI=
  0
TEXT
  8
0
  6
CONTINUOUS
 10
0.000000
 20
-18.750000
 40
0.200000
  1
$PLWDWGT49HdNT+onEEym4v5mWgAUn5YMFqWMskLHPxoFT7JZfmCWm9wwYJ3dB4L2C1gbZL6DHHLrK7Gplhn1tsbHussK2kG9rzegIWsvkGcFIZE4uCdoWCV9UXStvsI/uDuYn5OdseflDg3cUeF562hZk9X0n5mpJLtbUH0UYK4mumv9k=
  0
TEXT
  8
0
  6
CONTINUOUS
 10
0.000000
 20
-19.000000
 40
0.200000
  1
$PLWDWG9tnkcPF7GFTn/BosG7dXFAnsnocU5Ep2Ww7Z7rr3fQPJzS4JJtO6FN4WQabxVUywaFx/pNFllQgoZWZF9YwBWA7WgrjUNtPHs2myJF9R9H7jPyeanO3zTQ4+FfCJcLABZcOuhFvHcVlKr3uQJNQ8CiIFMlQJSA==
  0
ENDBLK
  8
0
  0
ENDSEC
  0
SECTION
  2
ENTITIES
  0
LINE
  8
5
  6
ESTILO_TQS_0004
 10
11.361145
 20
34.069792
 11
40.877038
 21
34.069792
  0
POLYLINE
  8
8
  6
CONTINUOUS
 66
     1
  0
VERTEX
  8
8
  6
CONTINUOUS
 10
9.568874
 20
34.279582
  0
VERTEX
  8
8
  6
CONTINUOUS
 10
9.568874
 20
34.069792
  0
VERTEX
  8
8
  6
CONTINUOUS
 10
11.037403
 20
34.069792
  0
VERTEX
  8
8
  6
CONTINUOUS
 10
11.037403
 20
34.279582
  0
VERTEX
  8
8
  6
CONTINUOUS
 10
9.568874
 20
34.279582
  0
SEQEND
  8
8
  6
CONTINUOUS
  0
POLYLINE
  8
8
  6
CONTINUOUS
 66
     1
  0
VERTEX
  8
8
  6
CONTINUOUS
 10
11.151352
 20
34.279582
  0
VERTEX
  8
8
  6
CONTINUOUS
 10
11.151352
 20
34.069792
  0
VERTEX
  8
8
  6
CONTINUOUS
 10
11.361145
 20
34.069792
  0
VERTEX
  8
8
  6
CONTINUOUS
 10
11.361145
 20
34.279582
  0
VERTEX
  8
8
  6
CONTINUOUS
 10
11.151352
 20
34.279582
  0
SEQEND
  8
8
  6
CONTINUOUS
  0
POLYLINE
  8
5
  6
CONTINUOUS
 66
     1
  0
VERTEX
  8
5
  6
CONTINUOUS
 10
10.306399
 20
34.695704
  0
VERTEX
  8
5
  6
CONTINUOUS
 10
9.871049
 20
34.427085
  0
VERTEX
  8
5
  6
CONTINUOUS
 10
10.741754
 20
34.427085
  0
VERTEX
  8
5
  6
CONTINUOUS
 10
10.306399
 20
34.695704
  0
SEQEND
  8
5
  6
CONTINUOUS
  0
TEXT
  8
5
  6
CONTINUOUS
 10
10.159839
 20
34.826853
 40
0.399960
  1
1
  0
POLYLINE
  8
8
  6
CONTINUOUS
 66
     1
  0
VERTEX
  8
8
  6
CONTINUOUS
 10
42.669310
 20
34.279582
  0
VERTEX
  8
8
  6
CONTINUOUS
 10
42.669310
 20
34.069792
  0
VERTEX
  8
8
  6
CONTINUOUS
 10
41.200780
 20
34.069792
  0
VERTEX
  8
8
  6
CONTINUOUS
 10
41.200780
 20
34.279582
  0
VERTEX
  8
8
  6
CONTINUOUS
 10
42.669310
 20
34.279582
  0
SEQEND
  8
8
  6
CONTINUOUS
  0
POLYLINE
  8
8
  6
CONTINUOUS
 66
     1
  0
VERTEX
  8
8
  6
CONTINUOUS
 10
41.086832
 20
34.279582
  0
VERTEX
  8
8
  6
CONTINUOUS
 10
41.086832
 20
34.069792
  0
VERTEX
  8
8
  6
CONTINUOUS
 10
40.877038
 20
34.069792
  0
VERTEX
  8
8
  6
CONTINUOUS
 10
40.877038
 20
34.279582
  0
VERTEX
  8
8
  6
CONTINUOUS
 10
41.086832
 20
34.279582
  0
SEQEND
  8
8
  6
CONTINUOUS
  0
POLYLINE
  8
5
  6
CONTINUOUS
 66
     1
  0
VERTEX
  8
5
  6
CONTINUOUS
 10
41.931785
 20
34.695704
  0
VERTEX
  8
5
  6
CONTINUOUS
 10
42.367134
 20
34.427085
  0
VERTEX
  8
5
  6
CONTINUOUS
 10
41.496430
 20
34.427085
  0
VERTEX
  8
5
  6
CONTINUOUS
 10
41.931785
 20
34.695704
  0
SEQEND
  8
5
  6
CONTINUOUS
  0
TEXT
  8
5
  6
CONTINUOUS
 10
41.817863
 20
34.821070
 40
0.399960
  1
1
  0
LINE
  8
5
  6
ESTILO_TQS_0004
 10
22.736963
 20
54.598829
 11
30.084920
 21
27.750220
  0
POLYLINE
  8
8
  6
CONTINUOUS
 66
     1
  0
VERTEX
  8
8
  6
CONTINUOUS
 10
22.466199
 20
56.382908
  0
VERTEX
  8
8
  6
CONTINUOUS
 10
22.263850
 20
56.327529
  0
VERTEX
  8
8
  6
CONTINUOUS
 10
22.651503
 20
54.911088
  0
VERTEX
  8
8
  6
CONTINUOUS
 10
22.853852
 20
54.966467
  0
VERTEX
  8
8
  6
CONTINUOUS
 10
22.466199
 20
56.382908
  0
SEQEND
  8
8
  6
CONTINUOUS
  0
POLYLINE
  8
8
  6
CONTINUOUS
 66
     1
  0
VERTEX
  8
8
  6
CONTINUOUS
 10
22.883932
 20
54.856560
  0
VERTEX
  8
8
  6
CONTINUOUS
 10
22.681583
 20
54.801181
  0
VERTEX
  8
8
  6
CONTINUOUS
 10
22.736963
 20
54.598829
  0
VERTEX
  8
8
  6
CONTINUOUS
 10
22.939312
 20
54.654208
  0
VERTEX
  8
8
  6
CONTINUOUS
 10
22.883932
 20
54.856560
  0
SEQEND
  8
8
  6
CONTINUOUS
  0
POLYLINE
  8
5
  6
CONTINUOUS
 66
     1
  0
VERTEX
  8
5
  6
CONTINUOUS
 10
23.062248
 20
55.781388
  0
VERTEX
  8
5
  6
CONTINUOUS
 10
22.688237
 20
56.130387
  0
VERTEX
  8
5
  6
CONTINUOUS
 10
22.918080
 20
55.290567
  0
VERTEX
  8
5
  6
CONTINUOUS
 10
23.062248
 20
55.781388
  0
SEQEND
  8
5
  6
CONTINUOUS
  0
POLYLINE
  8
8
  6
CONTINUOUS
 66
     1
  0
VERTEX
  8
8
  6
CONTINUOUS
 10
30.760382
 20
26.076900
  0
VERTEX
  8
8
  6
CONTINUOUS
 10
30.558033
 20
26.021521
  0
VERTEX
  8
8
  6
CONTINUOUS
 10
30.170380
 20
27.437961
  0
VERTEX
  8
8
  6
CONTINUOUS
 10
30.372729
 20
27.493340
  0
VERTEX
  8
8
  6
CONTINUOUS
 10
30.760382
 20
26.076900
  0
SEQEND
  8
8
  6
CONTINUOUS
  0
POLYLINE
  8
8
  6
CONTINUOUS
 66
     1
  0
VERTEX
  8
8
  6
CONTINUOUS
 10
30.342649
 20
27.603247
  0
VERTEX
  8
8
  6
CONTINUOUS
 10
30.140300
 20
27.547868
  0
VERTEX
  8
8
  6
CONTINUOUS
 10
30.084920
 20
27.750220
  0
VERTEX
  8
8
  6
CONTINUOUS
 10
30.287269
 20
27.805599
  0
VERTEX
  8
8
  6
CONTINUOUS
 10
30.342649
 20
27.603247
  0
SEQEND
  8
8
  6
CONTINUOUS
  0
POLYLINE
  8
5
  6
CONTINUOUS
 66
     1
  0
VERTEX
  8
5
  6
CONTINUOUS
 10
30.967057
 20
26.898110
  0
VERTEX
  8
5
  6
CONTINUOUS
 10
30.822887
 20
26.407295
  0
VERTEX
  8
5
  6
CONTINUOUS
 10
30.593043
 20
27.247115
  0
VERTEX
  8
5
  6
CONTINUOUS
 10
30.967057
 20
26.898110
  0
SEQEND
  8
5
  6
CONTINUOUS
  0
TEXT
  8
8
  6
CONTINUOUS
 10
6.955485
 20
55.424132
 40
0.499950
  1
PLANTA
  0
TEXT
  8
3
  6
CONTINUOUS
 10
58.307281
 20
54.429436
 40
0.250000
  1
ESC. - 1:50
  0
TEXT
  8
8
  6
CONTINUOUS
 10
53.339789
 20
54.429436
 40
0.500000
  1
SEÇÃO 1-1
  0
TEXT
  8
3
  6
CONTINUOUS
 10
10.600469
 20
55.424132
 40
0.250000
  1
ESC. - 1:50
  0
LINE
  8
7
  6
CONTINUOUS
 10
11.124915
 20
38.897988
 11
38.786062
 21
38.897988
  0
LINE
  8
7
  6
ESTILO_TQS_0001
 10
9.644298
 20
44.307987
 11
33.383778
 21
44.307987
  0
LINE
  8
7
  6
CONTINUOUS
 10
33.379985
 20
53.424505
 11
40.208497
 21
28.473935
  0
LINE
  8
7
  6
ESTILO_TQS_0001
 10
32.139436
 20
53.424505
 11
38.967948
 21
28.473935
  0
LINE
  8
7
  6
CONTINUOUS
 10
28.008527
 20
53.424505
 11
34.837039
 21
28.473935
  0
LINE
  8
7
  6
CONTINUOUS
 10
15.672535
 20
53.424505
 11
22.501047
 21
28.473935
  0
LINE
  8
7
  6
CONTINUOUS
 10
9.680029
 20
53.424505
 11
16.508541
 21
28.473935
  0
TEXT
  8
3
  6
CONTINUOUS
 10
52.715136
 20
23.261847
 40
0.300000
  1
ESC. - 1:50
  0
TEXT
  8
3
  6
CONTINUOUS
 10
22.512685
 20
38.484043
 40
0.180000
  1
91 N1 %%c 12.5 C/12
  0
TEXT
  8
5
  6
CONTINUOUS
 10
23.234331
 20
56.096767
 40
0.400000
 50
285.306000
  1
2
  0
TEXT
  8
5
  6
CONTINUOUS
 10
31.010066
 20
27.246805
 40
0.400000
 50
285.306000
  1
2
  0
TEXT
  8
8
  6
CONTINUOUS
 10
52.603085
 20
23.900507
 40
0.500000
  1
SEÇÃO 2-2
  0
TEXT
  8
3
  6
CONTINUOUS
 10
58.307281
 20
38.743462
 40
0.250000
  1
ESC. - 1:50
  0
TEXT
  8
8
  6
CONTINUOUS
 10
53.339789
 20
38.743462
 40
0.500000
  1
SEÇÃO 3-3
  0
TEXT
  8
8
  6
CONTINUOUS
 10
63.163294
 20
38.743462
 40
0.500000
  1
2X
  0
LINE
  8
5
  6
ESTILO_TQS_0004
 10
6.246173
 20
52.759223
 11
35.762066
 21
52.759223
  0
POLYLINE
  8
8
  6
CONTINUOUS
 66
     1
  0
VERTEX
  8
8
  6
CONTINUOUS
 10
4.453901
 20
52.969013
  0
VERTEX
  8
8
  6
CONTINUOUS
 10
4.453901
 20
52.759223
  0
VERTEX
  8
8
  6
CONTINUOUS
 10
5.922430
 20
52.759223
  0
VERTEX
  8
8
  6
CONTINUOUS
 10
5.922430
 20
52.969013
  0
VERTEX
  8
8
  6
CONTINUOUS
 10
4.453901
 20
52.969013
  0
SEQEND
  8
8
  6
CONTINUOUS
  0
POLYLINE
  8
8
  6
CONTINUOUS
 66
     1
  0
VERTEX
  8
8
  6
CONTINUOUS
 10
6.036379
 20
52.969013
  0
VERTEX
  8
8
  6
CONTINUOUS
 10
6.036379
 20
52.759223
  0
VERTEX
  8
8
  6
CONTINUOUS
 10
6.246173
 20
52.759223
  0
VERTEX
  8
8
  6
CONTINUOUS
 10
6.246173
 20
52.969013
  0
VERTEX
  8
8
  6
CONTINUOUS
 10
6.036379
 20
52.969013
  0
SEQEND
  8
8
  6
CONTINUOUS
  0
POLYLINE
  8
5
  6
CONTINUOUS
 66
     1
  0
VERTEX
  8
5
  6
CONTINUOUS
 10
5.191426
 20
53.385135
  0
VERTEX
  8
5
  6
CONTINUOUS
 10
4.756077
 20
53.116516
  0
VERTEX
  8
5
  6
CONTINUOUS
 10
5.626781
 20
53.116516
  0
VERTEX
  8
5
  6
CONTINUOUS
 10
5.191426
 20
53.385135
  0
SEQEND
  8
5
  6
CONTINUOUS
  0
POLYLINE
  8
8
  6
CONTINUOUS
 66
     1
  0
VERTEX
  8
8
  6
CONTINUOUS
 10
37.554337
 20
52.969013
  0
VERTEX
  8
8
  6
CONTINUOUS
 10
37.554337
 20
52.759223
  0
VERTEX
  8
8
  6
CONTINUOUS
 10
36.085808
 20
52.759223
  0
VERTEX
  8
8
  6
CONTINUOUS
 10
36.085808
 20
52.969013
  0
VERTEX
  8
8
  6
CONTINUOUS
 10
37.554337
 20
52.969013
  0
SEQEND
  8
8
  6
CONTINUOUS
  0
POLYLINE
  8
8
  6
CONTINUOUS
 66
     1
  0
VERTEX
  8
8
  6
CONTINUOUS
 10
35.971859
 20
52.969013
  0
VERTEX
  8
8
  6
CONTINUOUS
 10
35.971859
 20
52.759223
  0
VERTEX
  8
8
  6
CONTINUOUS
 10
35.762066
 20
52.759223
  0
VERTEX
  8
8
  6
CONTINUOUS
 10
35.762066
 20
52.969013
  0
VERTEX
  8
8
  6
CONTINUOUS
 10
35.971859
 20
52.969013
  0
SEQEND
  8
8
  6
CONTINUOUS
  0
POLYLINE
  8
5
  6
CONTINUOUS
 66
     1
  0
VERTEX
  8
5
  6
CONTINUOUS
 10
36.816812
 20
53.385135
  0
VERTEX
  8
5
  6
CONTINUOUS
 10
37.252161
 20
53.116516
  0
VERTEX
  8
5
  6
CONTINUOUS
 10
36.381457
 20
53.116516
  0
VERTEX
  8
5
  6
CONTINUOUS
 10
36.816812
 20
53.385135
  0
SEQEND
  8
5
  6
CONTINUOUS
  0
LINE
  8
5
  6
ESTILO_TQS_0004
 10
12.678819
 20
29.255291
 11
42.194713
 21
29.255291
  0
POLYLINE
  8
8
  6
CONTINUOUS
 66
     1
  0
VERTEX
  8
8
  6
CONTINUOUS
 10
10.886548
 20
29.465081
  0
VERTEX
  8
8
  6
CONTINUOUS
 10
10.886548
 20
29.255291
  0
VERTEX
  8
8
  6
CONTINUOUS
 10
12.355077
 20
29.255291
  0
VERTEX
  8
8
  6
CONTINUOUS
 10
12.355077
 20
29.465081
  0
VERTEX
  8
8
  6
CONTINUOUS
 10
10.886548
 20
29.465081
  0
SEQEND
  8
8
  6
CONTINUOUS
  0
POLYLINE
  8
8
  6
CONTINUOUS
 66
     1
  0
VERTEX
  8
8
  6
CONTINUOUS
 10
12.469026
 20
29.465081
  0
VERTEX
  8
8
  6
CONTINUOUS
 10
12.469026
 20
29.255291
  0
VERTEX
  8
8
  6
CONTINUOUS
 10
12.678819
 20
29.255291
  0
VERTEX
  8
8
  6
CONTINUOUS
 10
12.678819
 20
29.465081
  0
VERTEX
  8
8
  6
CONTINUOUS
 10
12.469026
 20
29.465081
  0
SEQEND
  8
8
  6
CONTINUOUS
  0
POLYLINE
  8
5
  6
CONTINUOUS
 66
     1
  0
VERTEX
  8
5
  6
CONTINUOUS
 10
11.624073
 20
29.881203
  0
VERTEX
  8
5
  6
CONTINUOUS
 10
11.188724
 20
29.612584
  0
VERTEX
  8
5
  6
CONTINUOUS
 10
12.059428
 20
29.612584
  0
VERTEX
  8
5
  6
CONTINUOUS
 10
11.624073
 20
29.881203
  0
SEQEND
  8
5
  6
CONTINUOUS
  0
POLYLINE
  8
8
  6
CONTINUOUS
 66
     1
  0
VERTEX
  8
8
  6
CONTINUOUS
 10
43.986984
 20
29.465081
  0
VERTEX
  8
8
  6
CONTINUOUS
 10
43.986984
 20
29.255291
  0
VERTEX
  8
8
  6
CONTINUOUS
 10
42.518455
 20
29.255291
  0
VERTEX
  8
8
  6
CONTINUOUS
 10
42.518455
 20
29.465081
  0
VERTEX
  8
8
  6
CONTINUOUS
 10
43.986984
 20
29.465081
  0
SEQEND
  8
8
  6
CONTINUOUS
  0
POLYLINE
  8
8
  6
CONTINUOUS
 66
     1
  0
VERTEX
  8
8
  6
CONTINUOUS
 10
42.404506
 20
29.465081
  0
VERTEX
  8
8
  6
CONTINUOUS
 10
42.404506
 20
29.255291
  0
VERTEX
  8
8
  6
CONTINUOUS
 10
42.194713
 20
29.255291
  0
VERTEX
  8
8
  6
CONTINUOUS
 10
42.194713
 20
29.465081
  0
VERTEX
  8
8
  6
CONTINUOUS
 10
42.404506
 20
29.465081
  0
SEQEND
  8
8
  6
CONTINUOUS
  0
POLYLINE
  8
5
  6
CONTINUOUS
 66
     1
  0
VERTEX
  8
5
  6
CONTINUOUS
 10
43.249459
 20
29.881203
  0
VERTEX
  8
5
  6
CONTINUOUS
 10
43.684808
 20
29.612584
  0
VERTEX
  8
5
  6
CONTINUOUS
 10
42.814104
 20
29.612584
  0
VERTEX
  8
5
  6
CONTINUOUS
 10
43.249459
 20
29.881203
  0
SEQEND
  8
5
  6
CONTINUOUS
  0
TEXT
  8
5
  6
CONTINUOUS
 10
5.044866
 20
53.516284
 40
0.400000
  1
3
  0
TEXT
  8
5
  6
CONTINUOUS
 10
36.702891
 20
53.510501
 40
0.400000
  1
3
  0
TEXT
  8
5
  6
CONTINUOUS
 10
11.477513
 20
30.012352
 40
0.400000
  1
3
  0
TEXT
  8
5
  6
CONTINUOUS
 10
43.135537
 20
30.006569
 40
0.400000
  1
3
  0
LINE
  8
3
  6
CONTINUOUS
 10
91.537171
 20
46.667815
 11
91.537171
 21
48.567815
  0
LINE
  8
3
  6
CONTINUOUS
 10
87.907171
 20
46.667815
 11
87.907171
 21
48.567815
  0
LINE
  8
3
  6
CONTINUOUS
 10
87.907171
 20
48.567815
 11
91.537171
 21
48.567815
  0
LINE
  8
3
  6
CONTINUOUS
 10
91.537171
 20
46.667815
 11
91.865092
 21
46.667815
  0
LINE
  8
3
  6
CONTINUOUS
 10
87.579250
 20
46.667815
 11
87.907171
 21
46.667815
  0
LINE
  8
3
  6
ESTILO_TQS_0001
 10
87.907171
 20
46.667815
 11
91.537171
 21
46.667815
  0
LINE
  8
3
  6
CONTINUOUS
 10
87.579250
 20
45.867815
 11
91.865092
 21
45.867815
  0
LINE
  8
3
  6
CONTINUOUS
 10
46.559929
 20
46.204355
 11
46.559929
 21
47.944355
  0
LINE
  8
3
  6
CONTINUOUS
 10
42.929929
 20
46.204355
 11
42.929929
 21
47.944355
  0
LINE
  8
3
  6
CONTINUOUS
 10
42.929929
 20
47.944355
 11
46.559929
 21
47.944355
  0
LINE
  8
3
  6
CONTINUOUS
 10
46.559929
 20
46.204355
 11
46.887850
 21
46.204355
  0
LINE
  8
3
  6
CONTINUOUS
 10
42.602009
 20
46.204355
 11
42.929929
 21
46.204355
  0
LINE
  8
3
  6
ESTILO_TQS_0001
 10
42.929929
 20
46.204355
 11
46.559929
 21
46.204355
  0
LINE
  8
3
  6
ESTILO_TQS_0001
 10
42.602009
 20
45.904355
 11
46.887850
 21
45.904355
  0
LINE
  8
3
  6
CONTINUOUS
 10
42.602009
 20
44.628666
 11
46.887850
 21
44.628666
  0
POLYLINE
  8
3
  6
CONTINUOUS
 66
     1
  0
VERTEX
  8
3
  6
CONTINUOUS
 10
87.579250
 20
46.667815
  0
VERTEX
  8
3
  6
CONTINUOUS
 10
87.564576
 20
46.636525
  0
VERTEX
  8
3
  6
CONTINUOUS
 10
87.553022
 20
46.605933
  0
VERTEX
  8
3
  6
CONTINUOUS
 10
87.541103
 20
46.563283
  0
VERTEX
  8
3
  6
CONTINUOUS
 10
87.531164
 20
46.492104
  0
VERTEX
  8
3
  6
CONTINUOUS
 10
87.533855
 20
46.413802
  0
VERTEX
  8
3
  6
CONTINUOUS
 10
87.548071
 20
46.345451
  0
VERTEX
  8
3
  6
CONTINUOUS
 10
87.559275
 20
46.312283
  0
VERTEX
  8
3
  6
CONTINUOUS
 10
87.579250
 20
46.267815
  0
SEQEND
  8
3
  6
CONTINUOUS
  0
POLYLINE
  8
3
  6
CONTINUOUS
 66
     1
  0
VERTEX
  8
3
  6
CONTINUOUS
 10
87.579250
 20
45.867815
  0
VERTEX
  8
3
  6
CONTINUOUS
 10
87.593926
 20
45.899104
  0
VERTEX
  8
3
  6
CONTINUOUS
 10
87.605480
 20
45.929697
  0
VERTEX
  8
3
  6
CONTINUOUS
 10
87.617399
 20
45.972346
  0
VERTEX
  8
3
  6
CONTINUOUS
 10
87.627337
 20
46.043525
  0
VERTEX
  8
3
  6
CONTINUOUS
 10
87.624645
 20
46.121827
  0
VERTEX
  8
3
  6
CONTINUOUS
 10
87.610430
 20
46.190178
  0
VERTEX
  8
3
  6
CONTINUOUS
 10
87.599227
 20
46.223346
  0
VERTEX
  8
3
  6
CONTINUOUS
 10
87.579250
 20
46.267814
  0
SEQEND
  8
3
  6
CONTINUOUS
  0
POLYLINE
  8
3
  6
CONTINUOUS
 66
     1
  0
VERTEX
  8
3
  6
CONTINUOUS
 10
91.865092
 20
46.667815
  0
VERTEX
  8
3
  6
CONTINUOUS
 10
91.850417
 20
46.636525
  0
VERTEX
  8
3
  6
CONTINUOUS
 10
91.838863
 20
46.605933
  0
VERTEX
  8
3
  6
CONTINUOUS
 10
91.826945
 20
46.563283
  0
VERTEX
  8
3
  6
CONTINUOUS
 10
91.817005
 20
46.492104
  0
VERTEX
  8
3
  6
CONTINUOUS
 10
91.819697
 20
46.413802
  0
VERTEX
  8
3
  6
CONTINUOUS
 10
91.833912
 20
46.345451
  0
VERTEX
  8
3
  6
CONTINUOUS
 10
91.845116
 20
46.312283
  0
VERTEX
  8
3
  6
CONTINUOUS
 10
91.865092
 20
46.267815
  0
SEQEND
  8
3
  6
CONTINUOUS
  0
POLYLINE
  8
3
  6
CONTINUOUS
 66
     1
  0
VERTEX
  8
3
  6
CONTINUOUS
 10
91.865092
 20
45.867815
  0
VERTEX
  8
3
  6
CONTINUOUS
 10
91.879768
 20
45.899104
  0
VERTEX
  8
3
  6
CONTINUOUS
 10
91.891321
 20
45.929697
  0
VERTEX
  8
3
  6
CONTINUOUS
 10
91.903240
 20
45.972346
  0
VERTEX
  8
3
  6
CONTINUOUS
 10
91.913178
 20
46.043525
  0
VERTEX
  8
3
  6
CONTINUOUS
 10
91.910487
 20
46.121827
  0
VERTEX
  8
3
  6
CONTINUOUS
 10
91.896271
 20
46.190178
  0
VERTEX
  8
3
  6
CONTINUOUS
 10
91.885068
 20
46.223346
  0
VERTEX
  8
3
  6
CONTINUOUS
 10
91.865092
 20
46.267814
  0
SEQEND
  8
3
  6
CONTINUOUS
  0
LINE
  8
3
  6
ESTILO_TQS_0001
 10
87.543420
 20
46.367815
 11
91.829261
 21
46.367815
  0
POLYLINE
  8
3
  6
CONTINUOUS
 66
     1
  0
VERTEX
  8
3
  6
CONTINUOUS
 10
87.967171
 20
48.053762
  0
VERTEX
  8
3
  6
CONTINUOUS
 10
91.477171
 20
48.053762
  0
SEQEND
  8
3
  6
CONTINUOUS
  0
POLYLINE
  8
3
  6
CONTINUOUS
 66
     1
  0
VERTEX
  8
3
  6
CONTINUOUS
 10
89.097110
 20
45.927815
  0
VERTEX
  8
3
  6
CONTINUOUS
 10
89.097110
 20
48.507815
  0
SEQEND
  8
3
  6
CONTINUOUS
  0
POLYLINE
  8
3
  6
CONTINUOUS
 66
     1
  0
VERTEX
  8
3
  6
CONTINUOUS
 10
90.389174
 20
45.927815
  0
VERTEX
  8
3
  6
CONTINUOUS
 10
90.389174
 20
48.507815
  0
SEQEND
  8
3
  6
CONTINUOUS
  0
TEXT
  8
8
  6
CONTINUOUS
 10
87.891127
 20
51.452831
 40
0.400000
  1
ELEVAÇÃO DO
  0
LINE
  8
4
  6
CONTINUOUS
 10
87.907171
 20
49.681077
 11
91.537171
 21
49.681077
  0
LINE
  8
4
  6
CONTINUOUS
 10
87.907171
 20
48.667815
 11
87.907171
 21
49.831077
  0
LINE
  8
4
  6
CONTINUOUS
 10
91.537171
 20
48.667815
 11
91.537171
 21
49.831077
  0
LINE
  8
3
  6
CONTINUOUS
 10
87.907171
 20
49.681077
 11
88.155032
 21
49.713708
  0
LINE
  8
3
  6
CONTINUOUS
 10
87.907171
 20
49.681077
 11
88.155032
 21
49.648445
  0
LINE
  8
3
  6
CONTINUOUS
 10
91.537171
 20
49.681077
 11
91.289310
 21
49.648445
  0
LINE
  8
3
  6
CONTINUOUS
 10
91.537171
 20
49.681077
 11
91.289310
 21
49.713708
  0
POLYLINE
  8
7
  6
CONTINUOUS
 66
     1
  0
VERTEX
  8
7
  6
CONTINUOUS
 10
87.967171
 20
44.590354
  0
VERTEX
  8
7
  6
CONTINUOUS
 10
91.477171
 20
44.590354
  0
SEQEND
  8
7
  6
CONTINUOUS
  0
TEXT
  8
8
  6
CONTINUOUS
 10
87.891127
 20
50.717649
 40
0.400000
  1
GUARDA CORPO (7x)
  0
LINE
  8
3
  6
CONTINUOUS
 10
42.929929
 20
47.004355
 11
46.559929
 21
47.004355
  0
LINE
  8
3
  6
CONTINUOUS
 10
42.929929
 20
46.504355
 11
46.559929
 21
46.504355
  0
POLYLINE
  8
3
  6
CONTINUOUS
 66
     1
  0
VERTEX
  8
3
  6
CONTINUOUS
 10
42.602009
 20
46.204355
  0
VERTEX
  8
3
  6
CONTINUOUS
 10
42.587557
 20
46.173541
  0
VERTEX
  8
3
  6
CONTINUOUS
 10
42.576179
 20
46.143413
  0
VERTEX
  8
3
  6
CONTINUOUS
 10
42.564441
 20
46.101412
  0
VERTEX
  8
3
  6
CONTINUOUS
 10
42.554653
 20
46.031314
  0
VERTEX
  8
3
  6
CONTINUOUS
 10
42.557304
 20
45.954202
  0
VERTEX
  8
3
  6
CONTINUOUS
 10
42.571303
 20
45.886890
  0
VERTEX
  8
3
  6
CONTINUOUS
 10
42.582337
 20
45.854226
  0
VERTEX
  8
3
  6
CONTINUOUS
 10
42.602009
 20
45.810433
  0
SEQEND
  8
3
  6
CONTINUOUS
  0
POLYLINE
  8
3
  6
CONTINUOUS
 66
     1
  0
VERTEX
  8
3
  6
CONTINUOUS
 10
42.602009
 20
45.416510
  0
VERTEX
  8
3
  6
CONTINUOUS
 10
42.616462
 20
45.447325
  0
VERTEX
  8
3
  6
CONTINUOUS
 10
42.627840
 20
45.477452
  0
VERTEX
  8
3
  6
CONTINUOUS
 10
42.639578
 20
45.519453
  0
VERTEX
  8
3
  6
CONTINUOUS
 10
42.649365
 20
45.589551
  0
VERTEX
  8
3
  6
CONTINUOUS
 10
42.646714
 20
45.666663
  0
VERTEX
  8
3
  6
CONTINUOUS
 10
42.632715
 20
45.733976
  0
VERTEX
  8
3
  6
CONTINUOUS
 10
42.621682
 20
45.766640
  0
VERTEX
  8
3
  6
CONTINUOUS
 10
42.602009
 20
45.810432
  0
SEQEND
  8
3
  6
CONTINUOUS
  0
POLYLINE
  8
3
  6
CONTINUOUS
 66
     1
  0
VERTEX
  8
3
  6
CONTINUOUS
 10
42.602009
 20
45.416510
  0
VERTEX
  8
3
  6
CONTINUOUS
 10
42.587557
 20
45.385696
  0
VERTEX
  8
3
  6
CONTINUOUS
 10
42.576179
 20
45.355569
  0
VERTEX
  8
3
  6
CONTINUOUS
 10
42.564441
 20
45.313568
  0
VERTEX
  8
3
  6
CONTINUOUS
 10
42.554653
 20
45.243470
  0
VERTEX
  8
3
  6
CONTINUOUS
 10
42.557304
 20
45.166358
  0
VERTEX
  8
3
  6
CONTINUOUS
 10
42.571303
 20
45.099045
  0
VERTEX
  8
3
  6
CONTINUOUS
 10
42.582337
 20
45.066381
  0
VERTEX
  8
3
  6
CONTINUOUS
 10
42.602009
 20
45.022588
  0
SEQEND
  8
3
  6
CONTINUOUS
  0
POLYLINE
  8
3
  6
CONTINUOUS
 66
     1
  0
VERTEX
  8
3
  6
CONTINUOUS
 10
42.602009
 20
44.628666
  0
VERTEX
  8
3
  6
CONTINUOUS
 10
42.616462
 20
44.659480
  0
VERTEX
  8
3
  6
CONTINUOUS
 10
42.627840
 20
44.689608
  0
VERTEX
  8
3
  6
CONTINUOUS
 10
42.639578
 20
44.731609
  0
VERTEX
  8
3
  6
CONTINUOUS
 10
42.649365
 20
44.801707
  0
VERTEX
  8
3
  6
CONTINUOUS
 10
42.646714
 20
44.878819
  0
VERTEX
  8
3
  6
CONTINUOUS
 10
42.632715
 20
44.946131
  0
VERTEX
  8
3
  6
CONTINUOUS
 10
42.621682
 20
44.978795
  0
VERTEX
  8
3
  6
CONTINUOUS
 10
42.602009
 20
45.022588
  0
SEQEND
  8
3
  6
CONTINUOUS
  0
POLYLINE
  8
3
  6
CONTINUOUS
 66
     1
  0
VERTEX
  8
3
  6
CONTINUOUS
 10
46.887850
 20
46.204355
  0
VERTEX
  8
3
  6
CONTINUOUS
 10
46.873399
 20
46.173541
  0
VERTEX
  8
3
  6
CONTINUOUS
 10
46.862020
 20
46.143413
  0
VERTEX
  8
3
  6
CONTINUOUS
 10
46.850283
 20
46.101412
  0
VERTEX
  8
3
  6
CONTINUOUS
 10
46.840494
 20
46.031314
  0
VERTEX
  8
3
  6
CONTINUOUS
 10
46.843145
 20
45.954202
  0
VERTEX
  8
3
  6
CONTINUOUS
 10
46.857144
 20
45.886890
  0
VERTEX
  8
3
  6
CONTINUOUS
 10
46.868178
 20
45.854226
  0
VERTEX
  8
3
  6
CONTINUOUS
 10
46.887850
 20
45.810433
  0
SEQEND
  8
3
  6
CONTINUOUS
  0
POLYLINE
  8
3
  6
CONTINUOUS
 66
     1
  0
VERTEX
  8
3
  6
CONTINUOUS
 10
46.887850
 20
45.416510
  0
VERTEX
  8
3
  6
CONTINUOUS
 10
46.902303
 20
45.447325
  0
VERTEX
  8
3
  6
CONTINUOUS
 10
46.913681
 20
45.477452
  0
VERTEX
  8
3
  6
CONTINUOUS
 10
46.925419
 20
45.519453
  0
VERTEX
  8
3
  6
CONTINUOUS
 10
46.935206
 20
45.589551
  0
VERTEX
  8
3
  6
CONTINUOUS
 10
46.932555
 20
45.666663
  0
VERTEX
  8
3
  6
CONTINUOUS
 10
46.918556
 20
45.733976
  0
VERTEX
  8
3
  6
CONTINUOUS
 10
46.907523
 20
45.766640
  0
VERTEX
  8
3
  6
CONTINUOUS
 10
46.887850
 20
45.810432
  0
SEQEND
  8
3
  6
CONTINUOUS
  0
POLYLINE
  8
3
  6
CONTINUOUS
 66
     1
  0
VERTEX
  8
3
  6
CONTINUOUS
 10
46.887850
 20
45.416510
  0
VERTEX
  8
3
  6
CONTINUOUS
 10
46.873399
 20
45.385696
  0
VERTEX
  8
3
  6
CONTINUOUS
 10
46.862020
 20
45.355569
  0
VERTEX
  8
3
  6
CONTINUOUS
 10
46.850283
 20
45.313568
  0
VERTEX
  8
3
  6
CONTINUOUS
 10
46.840494
 20
45.243470
  0
VERTEX
  8
3
  6
CONTINUOUS
 10
46.843145
 20
45.166358
  0
VERTEX
  8
3
  6
CONTINUOUS
 10
46.857144
 20
45.099045
  0
VERTEX
  8
3
  6
CONTINUOUS
 10
46.868178
 20
45.066381
  0
VERTEX
  8
3
  6
CONTINUOUS
 10
46.887850
 20
45.022588
  0
SEQEND
  8
3
  6
CONTINUOUS
  0
POLYLINE
  8
3
  6
CONTINUOUS
 66
     1
  0
VERTEX
  8
3
  6
CONTINUOUS
 10
46.887850
 20
44.628666
  0
VERTEX
  8
3
  6
CONTINUOUS
 10
46.902303
 20
44.659480
  0
VERTEX
  8
3
  6
CONTINUOUS
 10
46.913681
 20
44.689608
  0
VERTEX
  8
3
  6
CONTINUOUS
 10
46.925419
 20
44.731609
  0
VERTEX
  8
3
  6
CONTINUOUS
 10
46.935206
 20
44.801707
  0
VERTEX
  8
3
  6
CONTINUOUS
 10
46.932555
 20
44.878819
  0
VERTEX
  8
3
  6
CONTINUOUS
 10
46.918556
 20
44.946131
  0
VERTEX
  8
3
  6
CONTINUOUS
 10
46.907523
 20
44.978795
  0
VERTEX
  8
3
  6
CONTINUOUS
 10
46.887850
 20
45.022588
  0
SEQEND
  8
3
  6
CONTINUOUS
  0
POLYLINE
  8
3
  6
CONTINUOUS
 66
     1
  0
VERTEX
  8
3
  6
CONTINUOUS
 10
42.989929
 20
47.880955
  0
VERTEX
  8
3
  6
CONTINUOUS
 10
46.499929
 20
47.880955
  0
SEQEND
  8
3
  6
CONTINUOUS
  0
POLYLINE
  8
3
  6
CONTINUOUS
 66
     1
  0
VERTEX
  8
3
  6
CONTINUOUS
 10
42.989929
 20
46.940955
  0
VERTEX
  8
3
  6
CONTINUOUS
 10
46.499929
 20
46.940955
  0
SEQEND
  8
3
  6
CONTINUOUS
  0
POLYLINE
  8
3
  6
CONTINUOUS
 66
     1
  0
VERTEX
  8
3
  6
CONTINUOUS
 10
42.989929
 20
46.440955
  0
VERTEX
  8
3
  6
CONTINUOUS
 10
46.499929
 20
46.440955
  0
SEQEND
  8
3
  6
CONTINUOUS
  0
POLYLINE
  8
3
  6
CONTINUOUS
 66
     1
  0
VERTEX
  8
3
  6
CONTINUOUS
 10
42.989929
 20
47.410955
  0
VERTEX
  8
3
  6
CONTINUOUS
 10
46.499929
 20
47.410955
  0
SEQEND
  8
3
  6
CONTINUOUS
  0
POLYLINE
  8
7
  6
CONTINUOUS
 66
     1
  0
VERTEX
  8
7
  6
CONTINUOUS
 10
42.989929
 20
43.455863
  0
VERTEX
  8
7
  6
CONTINUOUS
 10
46.499929
 20
43.455863
  0
SEQEND
  8
7
  6
CONTINUOUS
  0
LINE
  8
4
  6
CONTINUOUS
 10
42.929929
 20
48.852060
 11
46.559929
 21
48.852060
  0
LINE
  8
4
  6
CONTINUOUS
 10
42.929929
 20
48.044355
 11
42.929929
 21
49.002060
  0
LINE
  8
4
  6
CONTINUOUS
 10
46.559929
 20
48.044355
 11
46.559929
 21
49.002060
  0
LINE
  8
3
  6
CONTINUOUS
 10
42.929929
 20
48.852060
 11
43.177791
 21
48.884691
  0
LINE
  8
3
  6
CONTINUOUS
 10
42.929929
 20
48.852060
 11
43.177791
 21
48.819428
  0
LINE
  8
3
  6
CONTINUOUS
 10
46.559929
 20
48.852060
 11
46.312068
 21
48.819428
  0
LINE
  8
3
  6
CONTINUOUS
 10
46.559929
 20
48.852060
 11
46.312068
 21
48.884691
  0
TEXT
  8
8
  6
CONTINUOUS
 10
43.071251
 20
51.523389
 40
0.400000
  1
ELEVAÇÃO DA
  0
TEXT
  8
8
  6
CONTINUOUS
 10
43.071251
 20
50.788206
 40
0.400000
  1
DEFENSA (7x)
  0
LINE
  8
3
  6
ESTILO_TQS_0001
 10
42.989929
 20
46.440955
 11
42.989929
 21
43.455863
  0
LINE
  8
3
  6
CONTINUOUS
 10
7.070647
 20
53.484505
 11
13.932001
 21
28.413935
  0
LINE
  8
3
  6
CONTINUOUS
 10
34.856207
 20
53.484505
 11
41.717561
 21
28.413935
  0
LINE
  8
3
  6
CONTINUOUS
 10
7.070647
 20
53.484505
 11
34.856207
 21
53.484505
  0
LINE
  8
3
  6
CONTINUOUS
 10
13.932001
 20
28.413935
 11
41.717561
 21
28.413935
  0
LINE
  8
3
  6
ESTILO_TQS_0001
 10
7.489380
 20
51.954505
 11
35.274940
 21
51.954505
  0
LINE
  8
3
  6
ESTILO_TQS_0001
 10
13.513268
 20
29.943935
 11
41.298828
 21
29.943935
  0
LINE
  8
3
  6
CONTINUOUS
 10
29.672334
 20
53.484505
 11
36.533688
 21
28.413935
  0
LINE
  8
3
  6
ESTILO_TQS_0001
 10
34.545175
 20
53.484505
 11
41.406529
 21
28.413935
  0
LINE
  8
3
  6
ESTILO_TQS_0001
 10
7.900067
 20
53.484505
 11
14.703625
 21
28.625115
  0
LINE
  8
3
  6
CONTINUOUS
 10
14.703625
 20
28.625115
 11
13.932001
 21
28.413935
  0
LINE
  8
3
  6
CONTINUOUS
 10
34.856207
 20
53.484505
 11
34.566849
 21
53.405312
  0
LINE
  8
3
  6
CONTINUOUS
 10
80.902479
 20
46.738372
 11
80.902479
 21
48.638372
  0
LINE
  8
3
  6
CONTINUOUS
 10
80.602479
 20
48.638372
 11
80.902479
 21
48.638372
  0
LINE
  8
3
  6
CONTINUOUS
 10
80.602479
 20
46.738372
 11
80.602479
 21
48.638372
  0
POLYLINE
  8
3
  6
CONTINUOUS
 66
     1
  0
VERTEX
  8
3
  6
CONTINUOUS
 10
75.782009
 20
44.574972
  0
VERTEX
  8
3
  6
CONTINUOUS
 10
75.782009
 20
46.374972
  0
VERTEX
  8
3
  6
CONTINUOUS
 10
80.839079
 20
46.374972
  0
VERTEX
  8
3
  6
CONTINUOUS
 10
80.839079
 20
45.981597
  0
SEQEND
  8
3
  6
CONTINUOUS
  0
POLYLINE
  8
3
  6
CONTINUOUS
 66
     1
  0
VERTEX
  8
3
  6
CONTINUOUS
 10
76.917550
 20
45.863652
  0
VERTEX
  8
3
  6
CONTINUOUS
 10
53.180309
 20
46.085658
  0
VERTEX
  8
3
  6
CONTINUOUS
 10
53.180309
 20
45.485658
  0
SEQEND
  8
3
  6
CONTINUOUS
  0
POLYLINE
  8
3
  6
CONTINUOUS
 66
     1
  0
VERTEX
  8
3
  6
CONTINUOUS
 10
53.176909
 20
44.620928
  0
VERTEX
  8
3
  6
CONTINUOUS
 10
75.709349
 20
44.401865
  0
VERTEX
  8
3
  6
CONTINUOUS
 10
80.842479
 20
45.986204
  0
SEQEND
  8
3
  6
CONTINUOUS
  0
POLYLINE
  8
3
  6
CONTINUOUS
 66
     1
  0
VERTEX
  8
3
  6
CONTINUOUS
 10
53.568575
 20
46.318814
  0
VERTEX
  8
3
  6
CONTINUOUS
 10
53.409896
 20
47.810397
  0
VERTEX
  8
3
  6
CONTINUOUS
 10
53.180309
 20
47.810397
  0
VERTEX
  8
3
  6
CONTINUOUS
 10
53.180309
 20
44.620895
  0
VERTEX
  8
3
  6
CONTINUOUS
 10
53.853509
 20
44.614350
  0
VERTEX
  8
3
  6
CONTINUOUS
 10
53.853509
 20
46.413812
  0
VERTEX
  8
3
  6
CONTINUOUS
 10
53.222701
 20
47.314967
  0
SEQEND
  8
3
  6
CONTINUOUS
  0
CIRCLE
  8
7
  6
CONTINUOUS
 10
53.200309
 20
47.790397
 40
0.020000
  0
CIRCLE
  8
7
  6
CONTINUOUS
 10
53.389896
 20
47.790397
 40
0.020000
  0
CIRCLE
  8
7
  6
CONTINUOUS
 10
53.833509
 20
46.393812
 40
0.020000
  0
CIRCLE
  8
7
  6
CONTINUOUS
 10
53.485592
 20
46.890836
 40
0.020000
  0
CIRCLE
  8
7
  6
CONTINUOUS
 10
53.200309
 20
46.890836
 40
0.020000
  0
CIRCLE
  8
7
  6
CONTINUOUS
 10
53.200309
 20
47.340617
 40
0.020000
  0
CIRCLE
  8
7
  6
CONTINUOUS
 10
53.437744
 20
47.340617
 40
0.020000
  0
CIRCLE
  8
7
  6
CONTINUOUS
 10
53.200309
 20
46.373812
 40
0.020000
  0
CIRCLE
  8
7
  6
CONTINUOUS
 10
53.200309
 20
46.065658
 40
0.020000
  0
CIRCLE
  8
7
  6
CONTINUOUS
 10
53.600291
 20
46.061883
 40
0.020000
  0
CIRCLE
  8
7
  6
CONTINUOUS
 10
54.000274
 20
46.058107
 40
0.020000
  0
CIRCLE
  8
7
  6
CONTINUOUS
 10
54.400256
 20
46.054331
 40
0.020000
  0
CIRCLE
  8
7
  6
CONTINUOUS
 10
54.800238
 20
46.050556
 40
0.020000
  0
CIRCLE
  8
7
  6
CONTINUOUS
 10
55.200220
 20
46.046780
 40
0.020000
  0
CIRCLE
  8
7
  6
CONTINUOUS
 10
55.600202
 20
46.043005
 40
0.020000
  0
CIRCLE
  8
7
  6
CONTINUOUS
 10
56.000184
 20
46.039229
 40
0.020000
  0
CIRCLE
  8
7
  6
CONTINUOUS
 10
56.400167
 20
46.035453
 40
0.020000
  0
CIRCLE
  8
7
  6
CONTINUOUS
 10
56.800149
 20
46.031678
 40
0.020000
  0
CIRCLE
  8
7
  6
CONTINUOUS
 10
57.200131
 20
46.027902
 40
0.020000
  0
CIRCLE
  8
7
  6
CONTINUOUS
 10
57.600113
 20
46.024127
 40
0.020000
  0
CIRCLE
  8
7
  6
CONTINUOUS
 10
58.000095
 20
46.020351
 40
0.020000
  0
CIRCLE
  8
7
  6
CONTINUOUS
 10
58.400078
 20
46.016575
 40
0.020000
  0
CIRCLE
  8
7
  6
CONTINUOUS
 10
58.800060
 20
46.012800
 40
0.020000
  0
CIRCLE
  8
7
  6
CONTINUOUS
 10
59.200042
 20
46.009024
 40
0.020000
  0
CIRCLE
  8
7
  6
CONTINUOUS
 10
59.600024
 20
46.005249
 40
0.020000
  0
CIRCLE
  8
7
  6
CONTINUOUS
 10
60.000006
 20
46.001473
 40
0.020000
  0
CIRCLE
  8
7
  6
CONTINUOUS
 10
60.742237
 20
45.996519
 40
0.020000
  0
CIRCLE
  8
7
  6
CONTINUOUS
 10
61.142219
 20
45.992743
 40
0.020000
  0
CIRCLE
  8
7
  6
CONTINUOUS
 10
61.542201
 20
45.988968
 40
0.020000
  0
CIRCLE
  8
7
  6
CONTINUOUS
 10
61.942183
 20
45.985192
 40
0.020000
  0
CIRCLE
  8
7
  6
CONTINUOUS
 10
62.342166
 20
45.981417
 40
0.020000
  0
CIRCLE
  8
7
  6
CONTINUOUS
 10
62.742148
 20
45.977641
 40
0.020000
  0
CIRCLE
  8
7
  6
CONTINUOUS
 10
63.142130
 20
45.973865
 40
0.020000
  0
CIRCLE
  8
7
  6
CONTINUOUS
 10
63.542112
 20
45.970090
 40
0.020000
  0
CIRCLE
  8
7
  6
CONTINUOUS
 10
63.942094
 20
45.966314
 40
0.020000
  0
CIRCLE
  8
7
  6
CONTINUOUS
 10
64.342077
 20
45.962539
 40
0.020000
  0
CIRCLE
  8
7
  6
CONTINUOUS
 10
64.742059
 20
45.958763
 40
0.020000
  0
CIRCLE
  8
7
  6
CONTINUOUS
 10
65.142041
 20
45.954987
 40
0.020000
  0
CIRCLE
  8
7
  6
CONTINUOUS
 10
65.542023
 20
45.951212
 40
0.020000
  0
CIRCLE
  8
7
  6
CONTINUOUS
 10
65.942005
 20
45.947436
 40
0.020000
  0
CIRCLE
  8
7
  6
CONTINUOUS
 10
66.341987
 20
45.943661
 40
0.020000
  0
CIRCLE
  8
7
  6
CONTINUOUS
 10
66.741970
 20
45.939885
 40
0.020000
  0
CIRCLE
  8
7
  6
CONTINUOUS
 10
67.141952
 20
45.936110
 40
0.020000
  0
CIRCLE
  8
7
  6
CONTINUOUS
 10
67.541934
 20
45.932334
 40
0.020000
  0
CIRCLE
  8
7
  6
CONTINUOUS
 10
67.941916
 20
45.928558
 40
0.020000
  0
CIRCLE
  8
7
  6
CONTINUOUS
 10
68.341898
 20
45.924783
 40
0.020000
  0
CIRCLE
  8
7
  6
CONTINUOUS
 10
68.741880
 20
45.921007
 40
0.020000
  0
CIRCLE
  8
7
  6
CONTINUOUS
 10
69.141863
 20
45.917232
 40
0.020000
  0
CIRCLE
  8
7
  6
CONTINUOUS
 10
69.541845
 20
45.913456
 40
0.020000
  0
CIRCLE
  8
7
  6
CONTINUOUS
 10
69.941827
 20
45.909680
 40
0.020000
  0
CIRCLE
  8
7
  6
CONTINUOUS
 10
70.341809
 20
45.905905
 40
0.020000
  0
CIRCLE
  8
7
  6
CONTINUOUS
 10
70.741791
 20
45.902129
 40
0.020000
  0
CIRCLE
  8
7
  6
CONTINUOUS
 10
71.141774
 20
45.898354
 40
0.020000
  0
CIRCLE
  8
7
  6
CONTINUOUS
 10
71.541756
 20
45.894578
 40
0.020000
  0
CIRCLE
  8
7
  6
CONTINUOUS
 10
71.941738
 20
45.890803
 40
0.020000
  0
CIRCLE
  8
7
  6
CONTINUOUS
 10
72.341720
 20
45.887027
 40
0.020000
  0
CIRCLE
  8
7
  6
CONTINUOUS
 10
72.741702
 20
45.883251
 40
0.020000
  0
CIRCLE
  8
7
  6
CONTINUOUS
 10
73.141684
 20
45.879476
 40
0.020000
  0
CIRCLE
  8
7
  6
CONTINUOUS
 10
73.541667
 20
45.875700
 40
0.020000
  0
CIRCLE
  8
7
  6
CONTINUOUS
 10
73.941649
 20
45.871925
 40
0.020000
  0
CIRCLE
  8
7
  6
CONTINUOUS
 10
74.341631
 20
45.868149
 40
0.020000
  0
CIRCLE
  8
7
  6
CONTINUOUS
 10
74.741613
 20
45.864373
 40
0.020000
  0
CIRCLE
  8
7
  6
CONTINUOUS
 10
75.141595
 20
45.860598
 40
0.020000
  0
CIRCLE
  8
7
  6
CONTINUOUS
 10
75.541578
 20
45.856822
 40
0.020000
  0
CIRCLE
  8
7
  6
CONTINUOUS
 10
53.199842
 20
44.591439
 40
0.020000
  0
CIRCLE
  8
7
  6
CONTINUOUS
 10
53.339836
 20
44.590117
 40
0.020000
  0
CIRCLE
  8
7
  6
CONTINUOUS
 10
53.479830
 20
44.588796
 40
0.020000
  0
CIRCLE
  8
7
  6
CONTINUOUS
 10
53.619824
 20
44.587474
 40
0.020000
  0
CIRCLE
  8
7
  6
CONTINUOUS
 10
53.759817
 20
44.586153
 40
0.020000
  0
CIRCLE
  8
7
  6
CONTINUOUS
 10
53.899811
 20
44.584831
 40
0.020000
  0
CIRCLE
  8
7
  6
CONTINUOUS
 10
54.039805
 20
44.583510
 40
0.020000
  0
CIRCLE
  8
7
  6
CONTINUOUS
 10
54.179799
 20
44.582188
 40
0.020000
  0
CIRCLE
  8
7
  6
CONTINUOUS
 10
54.319792
 20
44.580867
 40
0.020000
  0
CIRCLE
  8
7
  6
CONTINUOUS
 10
54.459786
 20
44.579545
 40
0.020000
  0
CIRCLE
  8
7
  6
CONTINUOUS
 10
54.599780
 20
44.578224
 40
0.020000
  0
CIRCLE
  8
7
  6
CONTINUOUS
 10
54.739774
 20
44.576903
 40
0.020000
  0
CIRCLE
  8
7
  6
CONTINUOUS
 10
54.879768
 20
44.575581
 40
0.020000
  0
CIRCLE
  8
7
  6
CONTINUOUS
 10
55.019761
 20
44.574260
 40
0.020000
  0
CIRCLE
  8
7
  6
CONTINUOUS
 10
55.159755
 20
44.572938
 40
0.020000
  0
CIRCLE
  8
7
  6
CONTINUOUS
 10
55.299749
 20
44.571617
 40
0.020000
  0
CIRCLE
  8
7
  6
CONTINUOUS
 10
55.439743
 20
44.570295
 40
0.020000
  0
CIRCLE
  8
7
  6
CONTINUOUS
 10
55.579736
 20
44.568974
 40
0.020000
  0
CIRCLE
  8
7
  6
CONTINUOUS
 10
55.719730
 20
44.567652
 40
0.020000
  0
CIRCLE
  8
7
  6
CONTINUOUS
 10
55.859724
 20
44.566331
 40
0.020000
  0
CIRCLE
  8
7
  6
CONTINUOUS
 10
55.999718
 20
44.565009
 40
0.020000
  0
CIRCLE
  8
7
  6
CONTINUOUS
 10
56.139711
 20
44.563688
 40
0.020000
  0
CIRCLE
  8
7
  6
CONTINUOUS
 10
56.279705
 20
44.562367
 40
0.020000
  0
CIRCLE
  8
7
  6
CONTINUOUS
 10
56.419699
 20
44.561045
 40
0.020000
  0
CIRCLE
  8
7
  6
CONTINUOUS
 10
56.559693
 20
44.559724
 40
0.020000
  0
CIRCLE
  8
7
  6
CONTINUOUS
 10
56.699686
 20
44.558402
 40
0.020000
  0
CIRCLE
  8
7
  6
CONTINUOUS
 10
56.839680
 20
44.557081
 40
0.020000
  0
CIRCLE
  8
7
  6
CONTINUOUS
 10
56.979674
 20
44.555759
 40
0.020000
  0
CIRCLE
  8
7
  6
CONTINUOUS
 10
57.119668
 20
44.554438
 40
0.020000
  0
CIRCLE
  8
7
  6
CONTINUOUS
 10
57.259662
 20
44.553116
 40
0.020000
  0
CIRCLE
  8
7
  6
CONTINUOUS
 10
57.399655
 20
44.551795
 40
0.020000
  0
CIRCLE
  8
7
  6
CONTINUOUS
 10
57.599646
 20
44.549907
 40
0.020000
  0
CIRCLE
  8
7
  6
CONTINUOUS
 10
57.799637
 20
44.548019
 40
0.020000
  0
CIRCLE
  8
7
  6
CONTINUOUS
 10
57.999629
 20
44.546132
 40
0.020000
  0
CIRCLE
  8
7
  6
CONTINUOUS
 10
58.199620
 20
44.544244
 40
0.020000
  0
CIRCLE
  8
7
  6
CONTINUOUS
 10
58.399611
 20
44.542356
 40
0.020000
  0
CIRCLE
  8
7
  6
CONTINUOUS
 10
58.599602
 20
44.540468
 40
0.020000
  0
CIRCLE
  8
7
  6
CONTINUOUS
 10
58.799593
 20
44.538580
 40
0.020000
  0
CIRCLE
  8
7
  6
CONTINUOUS
 10
58.999584
 20
44.536693
 40
0.020000
  0
CIRCLE
  8
7
  6
CONTINUOUS
 10
59.199575
 20
44.534805
 40
0.020000
  0
CIRCLE
  8
7
  6
CONTINUOUS
 10
59.399566
 20
44.532917
 40
0.020000
  0
CIRCLE
  8
7
  6
CONTINUOUS
 10
59.599557
 20
44.531029
 40
0.020000
  0
CIRCLE
  8
7
  6
CONTINUOUS
 10
59.799548
 20
44.529141
 40
0.020000
  0
CIRCLE
  8
7
  6
CONTINUOUS
 10
59.999539
 20
44.527254
 40
0.020000
  0
CIRCLE
  8
7
  6
CONTINUOUS
 10
60.199531
 20
44.525366
 40
0.020000
  0
CIRCLE
  8
7
  6
CONTINUOUS
 10
60.541779
 20
44.524187
 40
0.020000
  0
CIRCLE
  8
7
  6
CONTINUOUS
 10
60.741770
 20
44.522299
 40
0.020000
  0
CIRCLE
  8
7
  6
CONTINUOUS
 10
60.941761
 20
44.520412
 40
0.020000
  0
CIRCLE
  8
7
  6
CONTINUOUS
 10
61.141752
 20
44.518524
 40
0.020000
  0
CIRCLE
  8
7
  6
CONTINUOUS
 10
61.341743
 20
44.516636
 40
0.020000
  0
CIRCLE
  8
7
  6
CONTINUOUS
 10
61.541734
 20
44.514748
 40
0.020000
  0
CIRCLE
  8
7
  6
CONTINUOUS
 10
61.741725
 20
44.512860
 40
0.020000
  0
CIRCLE
  8
7
  6
CONTINUOUS
 10
61.941717
 20
44.510973
 40
0.020000
  0
CIRCLE
  8
7
  6
CONTINUOUS
 10
62.141708
 20
44.509085
 40
0.020000
  0
CIRCLE
  8
7
  6
CONTINUOUS
 10
62.341699
 20
44.507197
 40
0.020000
  0
CIRCLE
  8
7
  6
CONTINUOUS
 10
62.541690
 20
44.505309
 40
0.020000
  0
CIRCLE
  8
7
  6
CONTINUOUS
 10
62.741681
 20
44.503421
 40
0.020000
  0
CIRCLE
  8
7
  6
CONTINUOUS
 10
62.941672
 20
44.501534
 40
0.020000
  0
CIRCLE
  8
7
  6
CONTINUOUS
 10
63.141663
 20
44.499646
 40
0.020000
  0
CIRCLE
  8
7
  6
CONTINUOUS
 10
63.341654
 20
44.497758
 40
0.020000
  0
CIRCLE
  8
7
  6
CONTINUOUS
 10
63.541645
 20
44.495870
 40
0.020000
  0
CIRCLE
  8
7
  6
CONTINUOUS
 10
63.741636
 20
44.493982
 40
0.020000
  0
CIRCLE
  8
7
  6
CONTINUOUS
 10
63.941627
 20
44.492095
 40
0.020000
  0
CIRCLE
  8
7
  6
CONTINUOUS
 10
64.141619
 20
44.490207
 40
0.020000
  0
CIRCLE
  8
7
  6
CONTINUOUS
 10
64.341610
 20
44.488319
 40
0.020000
  0
CIRCLE
  8
7
  6
CONTINUOUS
 10
64.541601
 20
44.486431
 40
0.020000
  0
CIRCLE
  8
7
  6
CONTINUOUS
 10
64.741592
 20
44.484544
 40
0.020000
  0
CIRCLE
  8
7
  6
CONTINUOUS
 10
64.941583
 20
44.482656
 40
0.020000
  0
CIRCLE
  8
7
  6
CONTINUOUS
 10
65.141574
 20
44.480768
 40
0.020000
  0
CIRCLE
  8
7
  6
CONTINUOUS
 10
65.341565
 20
44.478880
 40
0.020000
  0
CIRCLE
  8
7
  6
CONTINUOUS
 10
65.541556
 20
44.476992
 40
0.020000
  0
CIRCLE
  8
7
  6
CONTINUOUS
 10
65.741547
 20
44.475105
 40
0.020000
  0
CIRCLE
  8
7
  6
CONTINUOUS
 10
65.941538
 20
44.473217
 40
0.020000
  0
CIRCLE
  8
7
  6
CONTINUOUS
 10
66.141529
 20
44.471329
 40
0.020000
  0
CIRCLE
  8
7
  6
CONTINUOUS
 10
66.341521
 20
44.469441
 40
0.020000
  0
CIRCLE
  8
7
  6
CONTINUOUS
 10
66.541512
 20
44.467553
 40
0.020000
  0
CIRCLE
  8
7
  6
CONTINUOUS
 10
66.741503
 20
44.465666
 40
0.020000
  0
CIRCLE
  8
7
  6
CONTINUOUS
 10
66.941494
 20
44.463778
 40
0.020000
  0
CIRCLE
  8
7
  6
CONTINUOUS
 10
67.141485
 20
44.461890
 40
0.020000
  0
CIRCLE
  8
7
  6
CONTINUOUS
 10
67.341476
 20
44.460002
 40
0.020000
  0
CIRCLE
  8
7
  6
CONTINUOUS
 10
67.541467
 20
44.458114
 40
0.020000
  0
CIRCLE
  8
7
  6
CONTINUOUS
 10
67.741458
 20
44.456227
 40
0.020000
  0
CIRCLE
  8
7
  6
CONTINUOUS
 10
67.941449
 20
44.454339
 40
0.020000
  0
CIRCLE
  8
7
  6
CONTINUOUS
 10
68.141440
 20
44.452451
 40
0.020000
  0
CIRCLE
  8
7
  6
CONTINUOUS
 10
68.341431
 20
44.450563
 40
0.020000
  0
CIRCLE
  8
7
  6
CONTINUOUS
 10
68.541423
 20
44.448675
 40
0.020000
  0
CIRCLE
  8
7
  6
CONTINUOUS
 10
68.741414
 20
44.446788
 40
0.020000
  0
CIRCLE
  8
7
  6
CONTINUOUS
 10
68.941405
 20
44.444900
 40
0.020000
  0
CIRCLE
  8
7
  6
CONTINUOUS
 10
69.141396
 20
44.443012
 40
0.020000
  0
CIRCLE
  8
7
  6
CONTINUOUS
 10
69.341387
 20
44.441124
 40
0.020000
  0
CIRCLE
  8
7
  6
CONTINUOUS
 10
69.541378
 20
44.439237
 40
0.020000
  0
CIRCLE
  8
7
  6
CONTINUOUS
 10
69.741369
 20
44.437349
 40
0.020000
  0
CIRCLE
  8
7
  6
CONTINUOUS
 10
69.941360
 20
44.435461
 40
0.020000
  0
CIRCLE
  8
7
  6
CONTINUOUS
 10
70.141351
 20
44.433573
 40
0.020000
  0
CIRCLE
  8
7
  6
CONTINUOUS
 10
71.541289
 20
44.420359
 40
0.020000
  0
CIRCLE
  8
7
  6
CONTINUOUS
 10
71.681283
 20
44.419037
 40
0.020000
  0
CIRCLE
  8
7
  6
CONTINUOUS
 10
71.821276
 20
44.417716
 40
0.020000
  0
CIRCLE
  8
7
  6
CONTINUOUS
 10
71.961270
 20
44.416394
 40
0.020000
  0
CIRCLE
  8
7
  6
CONTINUOUS
 10
72.101264
 20
44.415073
 40
0.020000
  0
CIRCLE
  8
7
  6
CONTINUOUS
 10
72.241258
 20
44.413751
 40
0.020000
  0
CIRCLE
  8
7
  6
CONTINUOUS
 10
72.381251
 20
44.412430
 40
0.020000
  0
CIRCLE
  8
7
  6
CONTINUOUS
 10
72.521245
 20
44.411108
 40
0.020000
  0
CIRCLE
  8
7
  6
CONTINUOUS
 10
72.661239
 20
44.409787
 40
0.020000
  0
CIRCLE
  8
7
  6
CONTINUOUS
 10
72.801233
 20
44.408465
 40
0.020000
  0
CIRCLE
  8
7
  6
CONTINUOUS
 10
72.941227
 20
44.407144
 40
0.020000
  0
CIRCLE
  8
7
  6
CONTINUOUS
 10
73.081220
 20
44.405823
 40
0.020000
  0
CIRCLE
  8
7
  6
CONTINUOUS
 10
73.221214
 20
44.404501
 40
0.020000
  0
CIRCLE
  8
7
  6
CONTINUOUS
 10
73.361208
 20
44.403180
 40
0.020000
  0
CIRCLE
  8
7
  6
CONTINUOUS
 10
73.501202
 20
44.401858
 40
0.020000
  0
CIRCLE
  8
7
  6
CONTINUOUS
 10
73.641195
 20
44.400537
 40
0.020000
  0
CIRCLE
  8
7
  6
CONTINUOUS
 10
73.781189
 20
44.399215
 40
0.020000
  0
CIRCLE
  8
7
  6
CONTINUOUS
 10
73.921183
 20
44.397894
 40
0.020000
  0
CIRCLE
  8
7
  6
CONTINUOUS
 10
74.061177
 20
44.396572
 40
0.020000
  0
CIRCLE
  8
7
  6
CONTINUOUS
 10
74.201170
 20
44.395251
 40
0.020000
  0
CIRCLE
  8
7
  6
CONTINUOUS
 10
74.341164
 20
44.393929
 40
0.020000
  0
CIRCLE
  8
7
  6
CONTINUOUS
 10
74.481158
 20
44.392608
 40
0.020000
  0
CIRCLE
  8
7
  6
CONTINUOUS
 10
74.621152
 20
44.391287
 40
0.020000
  0
CIRCLE
  8
7
  6
CONTINUOUS
 10
74.761145
 20
44.389965
 40
0.020000
  0
CIRCLE
  8
7
  6
CONTINUOUS
 10
74.901139
 20
44.388644
 40
0.020000
  0
CIRCLE
  8
7
  6
CONTINUOUS
 10
75.041133
 20
44.387322
 40
0.020000
  0
CIRCLE
  8
7
  6
CONTINUOUS
 10
75.181127
 20
44.386001
 40
0.020000
  0
CIRCLE
  8
7
  6
CONTINUOUS
 10
75.321121
 20
44.384679
 40
0.020000
  0
CIRCLE
  8
7
  6
CONTINUOUS
 10
75.461114
 20
44.383358
 40
0.020000
  0
CIRCLE
  8
7
  6
CONTINUOUS
 10
75.601108
 20
44.382036
 40
0.020000
  0
CIRCLE
  8
7
  6
CONTINUOUS
 10
75.741102
 20
44.380715
 40
0.020000
  0
CIRCLE
  8
7
  6
CONTINUOUS
 10
70.341342
 20
44.431685
 40
0.020000
  0
CIRCLE
  8
7
  6
CONTINUOUS
 10
70.541333
 20
44.429798
 40
0.020000
  0
CIRCLE
  8
7
  6
CONTINUOUS
 10
70.741325
 20
44.427910
 40
0.020000
  0
CIRCLE
  8
7
  6
CONTINUOUS
 10
70.941316
 20
44.426022
 40
0.020000
  0
CIRCLE
  8
7
  6
CONTINUOUS
 10
71.141307
 20
44.424134
 40
0.020000
  0
CIRCLE
  8
7
  6
CONTINUOUS
 10
71.341298
 20
44.422246
 40
0.020000
  0
LINE
  8
4
  6
CONTINUOUS
 10
53.185681
 20
43.091167
 11
57.385494
 21
43.051523
  0
LINE
  8
4
  6
CONTINUOUS
 10
57.384078
 20
42.901530
 11
57.398711
 21
44.451799
  0
LINE
  8
4
  6
CONTINUOUS
 10
53.184265
 20
42.941173
 11
53.198898
 21
44.491443
  0
LINE
  8
3
  6
CONTINUOUS
 10
57.137951
 20
43.086493
 11
57.385494
 21
43.051523
  0
LINE
  8
3
  6
CONTINUOUS
 10
57.137335
 20
43.021232
 11
57.385494
 21
43.051523
  0
LINE
  8
3
  6
CONTINUOUS
 10
53.185681
 20
43.091167
 11
53.433223
 21
43.056197
  0
LINE
  8
3
  6
CONTINUOUS
 10
53.185681
 20
43.091167
 11
53.433839
 21
43.121457
  0
LINE
  8
4
  6
CONTINUOUS
 10
57.585485
 20
43.049635
 11
71.327136
 21
42.921974
  0
LINE
  8
4
  6
CONTINUOUS
 10
57.584069
 20
42.899642
 11
57.598702
 21
44.449912
  0
LINE
  8
4
  6
CONTINUOUS
 10
71.325720
 20
42.771981
 11
71.340354
 21
44.322251
  0
LINE
  8
3
  6
CONTINUOUS
 10
57.585485
 20
43.049635
 11
57.833027
 21
43.014665
  0
LINE
  8
3
  6
CONTINUOUS
 10
57.585485
 20
43.049635
 11
57.833643
 21
43.079926
  0
LINE
  8
3
  6
CONTINUOUS
 10
71.079594
 20
42.956944
 11
71.327136
 21
42.921974
  0
LINE
  8
3
  6
CONTINUOUS
 10
71.078978
 20
42.891684
 11
71.327136
 21
42.921974
  0
LINE
  8
4
  6
CONTINUOUS
 10
71.527127
 20
42.920086
 11
75.726940
 21
42.880442
  0
LINE
  8
4
  6
CONTINUOUS
 10
75.725524
 20
42.730448
 11
75.740158
 21
44.280719
  0
LINE
  8
4
  6
CONTINUOUS
 10
71.525711
 20
42.770093
 11
71.540345
 21
44.320363
  0
LINE
  8
3
  6
CONTINUOUS
 10
75.479398
 20
42.915411
 11
75.726940
 21
42.880442
  0
LINE
  8
3
  6
CONTINUOUS
 10
75.478782
 20
42.850151
 11
75.726940
 21
42.880442
  0
LINE
  8
3
  6
CONTINUOUS
 10
71.527127
 20
42.920086
 11
71.774669
 21
42.885117
  0
LINE
  8
3
  6
CONTINUOUS
 10
71.527127
 20
42.920086
 11
71.775285
 21
42.950377
  0
CIRCLE
  8
7
  6
CONTINUOUS
 10
75.874875
 20
44.422005
 40
0.020000
  0
CIRCLE
  8
7
  6
CONTINUOUS
 10
76.008647
 20
44.463294
 40
0.020000
  0
CIRCLE
  8
7
  6
CONTINUOUS
 10
76.142420
 20
44.504584
 40
0.020000
  0
CIRCLE
  8
7
  6
CONTINUOUS
 10
76.276193
 20
44.545873
 40
0.020000
  0
CIRCLE
  8
7
  6
CONTINUOUS
 10
76.409966
 20
44.587163
 40
0.020000
  0
CIRCLE
  8
7
  6
CONTINUOUS
 10
76.543739
 20
44.628452
 40
0.020000
  0
CIRCLE
  8
7
  6
CONTINUOUS
 10
76.677512
 20
44.669742
 40
0.020000
  0
CIRCLE
  8
7
  6
CONTINUOUS
 10
76.811285
 20
44.711031
 40
0.020000
  0
CIRCLE
  8
7
  6
CONTINUOUS
 10
76.945057
 20
44.752321
 40
0.020000
  0
CIRCLE
  8
7
  6
CONTINUOUS
 10
77.136161
 20
44.811306
 40
0.020000
  0
CIRCLE
  8
7
  6
CONTINUOUS
 10
77.327265
 20
44.870291
 40
0.020000
  0
CIRCLE
  8
7
  6
CONTINUOUS
 10
77.518370
 20
44.929276
 40
0.020000
  0
CIRCLE
  8
7
  6
CONTINUOUS
 10
77.709474
 20
44.988261
 40
0.020000
  0
CIRCLE
  8
7
  6
CONTINUOUS
 10
77.900578
 20
45.047246
 40
0.020000
  0
CIRCLE
  8
7
  6
CONTINUOUS
 10
78.091682
 20
45.106231
 40
0.020000
  0
CIRCLE
  8
7
  6
CONTINUOUS
 10
78.282786
 20
45.165217
 40
0.020000
  0
CIRCLE
  8
7
  6
CONTINUOUS
 10
78.473890
 20
45.224202
 40
0.020000
  0
CIRCLE
  8
7
  6
CONTINUOUS
 10
78.664994
 20
45.283187
 40
0.020000
  0
CIRCLE
  8
7
  6
CONTINUOUS
 10
78.856098
 20
45.342172
 40
0.020000
  0
CIRCLE
  8
7
  6
CONTINUOUS
 10
79.047202
 20
45.401157
 40
0.020000
  0
CIRCLE
  8
7
  6
CONTINUOUS
 10
79.238306
 20
45.460142
 40
0.020000
  0
CIRCLE
  8
7
  6
CONTINUOUS
 10
79.429410
 20
45.519127
 40
0.020000
  0
CIRCLE
  8
7
  6
CONTINUOUS
 10
79.620514
 20
45.578112
 40
0.020000
  0
CIRCLE
  8
7
  6
CONTINUOUS
 10
79.811618
 20
45.637097
 40
0.020000
  0
CIRCLE
  8
7
  6
CONTINUOUS
 10
80.002722
 20
45.696082
 40
0.020000
  0
CIRCLE
  8
7
  6
CONTINUOUS
 10
80.193826
 20
45.755067
 40
0.020000
  0
CIRCLE
  8
7
  6
CONTINUOUS
 10
80.384930
 20
45.814052
 40
0.020000
  0
CIRCLE
  8
7
  6
CONTINUOUS
 10
80.576034
 20
45.873038
 40
0.020000
  0
CIRCLE
  8
7
  6
CONTINUOUS
 10
80.767138
 20
45.932023
 40
0.020000
  0
LINE
  8
4
  6
CONTINUOUS
 10
76.341968
 20
42.908684
 11
77.412150
 21
43.239000
  0
LINE
  8
4
  6
CONTINUOUS
 10
75.904367
 20
44.326452
 11
76.386206
 21
42.765356
  0
LINE
  8
4
  6
CONTINUOUS
 10
76.974550
 20
44.656769
 11
77.456389
 21
43.095672
  0
LINE
  8
3
  6
CONTINUOUS
 10
76.341968
 20
42.908684
 11
76.588428
 21
42.950604
  0
LINE
  8
3
  6
CONTINUOUS
 10
76.341968
 20
42.908684
 11
76.569180
 21
43.012965
  0
LINE
  8
3
  6
CONTINUOUS
 10
77.165690
 20
43.197080
 11
77.412150
 21
43.239000
  0
LINE
  8
3
  6
CONTINUOUS
 10
77.184938
 20
43.134720
 11
77.412150
 21
43.239000
  0
LINE
  8
4
  6
CONTINUOUS
 10
77.603254
 20
43.297985
 11
81.234231
 21
44.418702
  0
LINE
  8
4
  6
CONTINUOUS
 10
77.165654
 20
44.715754
 11
77.647493
 21
43.154657
  0
LINE
  8
4
  6
CONTINUOUS
 10
80.796631
 20
45.836471
 11
81.278470
 21
44.275374
  0
LINE
  8
3
  6
CONTINUOUS
 10
77.603254
 20
43.297985
 11
77.849715
 21
43.339906
  0
LINE
  8
3
  6
CONTINUOUS
 10
77.603254
 20
43.297985
 11
77.830467
 21
43.402266
  0
LINE
  8
3
  6
CONTINUOUS
 10
80.987771
 20
44.376782
 11
81.234231
 21
44.418702
  0
LINE
  8
3
  6
CONTINUOUS
 10
81.007019
 20
44.314421
 11
81.234231
 21
44.418702
  0
CIRCLE
  8
7
  6
CONTINUOUS
 10
75.802009
 20
46.354972
 40
0.020000
  0
CIRCLE
  8
7
  6
CONTINUOUS
 10
76.202009
 20
46.354972
 40
0.020000
  0
CIRCLE
  8
7
  6
CONTINUOUS
 10
76.602009
 20
46.354972
 40
0.020000
  0
CIRCLE
  8
7
  6
CONTINUOUS
 10
77.002009
 20
46.354972
 40
0.020000
  0
CIRCLE
  8
7
  6
CONTINUOUS
 10
77.402009
 20
46.354972
 40
0.020000
  0
CIRCLE
  8
7
  6
CONTINUOUS
 10
77.802009
 20
46.354972
 40
0.020000
  0
CIRCLE
  8
7
  6
CONTINUOUS
 10
78.202009
 20
46.354972
 40
0.020000
  0
CIRCLE
  8
7
  6
CONTINUOUS
 10
78.602009
 20
46.354972
 40
0.020000
  0
CIRCLE
  8
7
  6
CONTINUOUS
 10
79.002009
 20
46.354972
 40
0.020000
  0
CIRCLE
  8
7
  6
CONTINUOUS
 10
79.402009
 20
46.354972
 40
0.020000
  0
CIRCLE
  8
7
  6
CONTINUOUS
 10
79.802009
 20
46.354972
 40
0.020000
  0
CIRCLE
  8
7
  6
CONTINUOUS
 10
80.202009
 20
46.354972
 40
0.020000
  0
CIRCLE
  8
7
  6
CONTINUOUS
 10
80.602009
 20
46.354972
 40
0.020000
  0
LINE
  8
4
  6
CONTINUOUS
 10
75.802009
 20
47.810963
 11
80.602009
 21
47.810963
  0
LINE
  8
4
  6
CONTINUOUS
 10
75.802009
 20
46.454972
 11
75.802009
 21
47.960963
  0
LINE
  8
3
  6
CONTINUOUS
 10
80.354148
 20
47.843594
 11
80.602009
 21
47.810963
  0
LINE
  8
3
  6
CONTINUOUS
 10
80.354148
 20
47.778331
 11
80.602009
 21
47.810963
  0
LINE
  8
3
  6
CONTINUOUS
 10
75.802009
 20
47.810963
 11
76.049870
 21
47.778331
  0
LINE
  8
3
  6
CONTINUOUS
 10
75.802009
 20
47.810963
 11
76.049870
 21
47.843594
  0
LINE
  8
4
  6
CONTINUOUS
 10
54.014570
 20
47.572678
 11
75.555874
 21
47.371393
  0
LINE
  8
4
  6
CONTINUOUS
 10
75.542521
 20
45.956818
 11
75.557290
 21
47.521387
  0
LINE
  8
4
  6
CONTINUOUS
 10
54.001217
 20
46.158102
 11
54.015986
 21
47.722671
  0
LINE
  8
3
  6
CONTINUOUS
 10
75.308332
 20
47.406363
 11
75.555874
 21
47.371393
  0
LINE
  8
3
  6
CONTINUOUS
 10
75.307716
 20
47.341103
 11
75.555874
 21
47.371393
  0
LINE
  8
3
  6
CONTINUOUS
 10
54.014570
 20
47.572678
 11
54.262112
 21
47.537708
  0
LINE
  8
3
  6
CONTINUOUS
 10
54.014570
 20
47.572678
 11
54.262728
 21
47.602969
  0
LINE
  8
4
  6
CONTINUOUS
 10
52.629480
 20
46.848976
 11
53.200309
 21
46.373812
  0
LINE
  8
4
  6
CONTINUOUS
 10
52.629480
 20
47.366000
 11
53.200309
 21
46.890836
  0
LINE
  8
4
  6
CONTINUOUS
 10
52.629480
 20
47.815780
 11
53.200309
 21
47.340617
  0
LINE
  8
4
  6
CONTINUOUS
 10
52.629480
 20
48.265561
 11
53.200309
 21
47.790397
  0
LINE
  8
4
  6
CONTINUOUS
 10
53.833509
 20
46.373812
 11
54.404339
 21
46.848976
  0
LINE
  8
4
  6
CONTINUOUS
 10
53.485592
 20
46.890836
 11
54.404339
 21
47.655609
  0
LINE
  8
4
  6
CONTINUOUS
 10
53.437744
 20
47.340617
 11
54.404339
 21
48.145218
  0
LINE
  8
4
  6
CONTINUOUS
 10
53.389896
 20
47.790397
 11
54.404339
 21
48.634828
  0
LINE
  8
4
  6
CONTINUOUS
 10
52.629480
 20
46.848976
 11
52.629480
 21
48.265561
  0
LINE
  8
4
  6
CONTINUOUS
 10
54.404339
 20
46.848976
 11
54.404339
 21
48.634828
  0
POLYLINE
  8
7
  6
CONTINUOUS
 66
     1
  0
VERTEX
  8
7
  6
CONTINUOUS
 10
75.782009
 20
50.454331
  0
VERTEX
  8
7
  6
CONTINUOUS
 10
75.782009
 20
52.254331
  0
VERTEX
  8
7
  6
CONTINUOUS
 10
80.839079
 20
52.254331
  0
VERTEX
  8
7
  6
CONTINUOUS
 10
80.839079
 20
51.860956
  0
SEQEND
  8
7
  6
CONTINUOUS
  0
POLYLINE
  8
7
  6
CONTINUOUS
 66
     1
  0
VERTEX
  8
7
  6
CONTINUOUS
 10
76.917550
 20
49.880151
  0
VERTEX
  8
7
  6
CONTINUOUS
 10
53.180309
 20
50.102157
  0
VERTEX
  8
7
  6
CONTINUOUS
 10
53.180309
 20
49.502157
  0
SEQEND
  8
7
  6
CONTINUOUS
  0
POLYLINE
  8
7
  6
CONTINUOUS
 66
     1
  0
VERTEX
  8
7
  6
CONTINUOUS
 10
53.176909
 20
41.262165
  0
VERTEX
  8
7
  6
CONTINUOUS
 10
75.709349
 20
41.043101
  0
VERTEX
  8
7
  6
CONTINUOUS
 10
80.842479
 20
42.627440
  0
SEQEND
  8
7
  6
CONTINUOUS
  0
TEXT
  8
5
  6
CONTINUOUS
 10
77.925558
 20
41.444565
 40
0.180000
 50
17.152826
  1
 269 
  0
TEXT
  8
5
  6
CONTINUOUS
 10
53.090309
 20
49.442157
 40
0.180000
 50
90.000000
  1
 30 
  0
TEXT
  8
5
  6
CONTINUOUS
 10
81.109079
 20
51.697644
 40
0.180000
 50
90.000000
  1
 20 
  0
TEXT
  8
5
  6
CONTINUOUS
 10
78.013111
 20
51.871373
 40
0.180000
 50
360.000000
  1
 253 
  0
TEXT
  8
5
  6
CONTINUOUS
 10
75.692009
 20
50.994331
 40
0.180000
 50
90.000000
  1
 90 
  0
TEXT
  8
5
  6
CONTINUOUS
 10
75.768266
 20
52.416741
 40
0.180000
  1
104 N3 %%c 10 C/12 C=363
  0
POLYLINE
  8
7
  6
CONTINUOUS
 66
     1
  0
VERTEX
  8
7
  6
CONTINUOUS
 10
50.540164
 20
46.318814
  0
VERTEX
  8
7
  6
CONTINUOUS
 10
50.381485
 20
47.810397
  0
VERTEX
  8
7
  6
CONTINUOUS
 10
50.151898
 20
47.810397
  0
VERTEX
  8
7
  6
CONTINUOUS
 10
50.151898
 20
44.620895
  0
VERTEX
  8
7
  6
CONTINUOUS
 10
50.825098
 20
44.614350
  0
VERTEX
  8
7
  6
CONTINUOUS
 10
50.825098
 20
46.413812
  0
VERTEX
  8
7
  6
CONTINUOUS
 10
50.194290
 20
47.314967
  0
SEQEND
  8
7
  6
CONTINUOUS
  0
CIRCLE
  8
7
  6
CONTINUOUS
 10
80.685879
 20
46.654972
 40
0.020000
  0
CIRCLE
  8
7
  6
CONTINUOUS
 10
80.819079
 20
46.654972
 40
0.020000
  0
POLYLINE
  8
3
  6
CONTINUOUS
 66
     1
  0
VERTEX
  8
3
  6
CONTINUOUS
 10
80.662479
 20
48.574972
  0
VERTEX
  8
3
  6
CONTINUOUS
 10
80.839079
 20
48.574972
  0
VERTEX
  8
3
  6
CONTINUOUS
 10
80.839079
 20
45.985155
  0
VERTEX
  8
3
  6
CONTINUOUS
 10
80.662479
 20
45.930647
  0
SEQEND
  8
3
  6
CONTINUOUS
  0
POLYLINE
  8
3
  6
CONTINUOUS
 66
     1
  0
VERTEX
  8
3
  6
CONTINUOUS
 10
80.842479
 20
45.986204
  0
VERTEX
  8
3
  6
CONTINUOUS
 10
80.665879
 20
45.931697
  0
VERTEX
  8
3
  6
CONTINUOUS
 10
80.665879
 20
48.574972
  0
VERTEX
  8
3
  6
CONTINUOUS
 10
80.842479
 20
48.574972
  0
SEQEND
  8
3
  6
CONTINUOUS
  0
CIRCLE
  8
7
  6
CONTINUOUS
 10
80.685879
 20
48.554972
 40
0.020000
  0
CIRCLE
  8
7
  6
CONTINUOUS
 10
80.819079
 20
48.554972
 40
0.020000
  0
POLYLINE
  8
7
  6
CONTINUOUS
 66
     1
  0
VERTEX
  8
7
  6
CONTINUOUS
 10
83.424097
 20
48.574972
  0
VERTEX
  8
7
  6
CONTINUOUS
 10
83.600697
 20
48.574972
  0
VERTEX
  8
7
  6
CONTINUOUS
 10
83.600697
 20
45.985155
  0
VERTEX
  8
7
  6
CONTINUOUS
 10
83.424097
 20
45.930647
  0
SEQEND
  8
7
  6
CONTINUOUS
  0
POLYLINE
  8
7
  6
CONTINUOUS
 66
     1
  0
VERTEX
  8
7
  6
CONTINUOUS
 10
82.872366
 20
45.986204
  0
VERTEX
  8
7
  6
CONTINUOUS
 10
82.695766
 20
45.931697
  0
VERTEX
  8
7
  6
CONTINUOUS
 10
82.695766
 20
48.574972
  0
VERTEX
  8
7
  6
CONTINUOUS
 10
82.872366
 20
48.574972
  0
SEQEND
  8
7
  6
CONTINUOUS
  0
LINE
  8
4
  6
CONTINUOUS
 10
80.819079
 20
47.054972
 11
81.554440
 21
47.054972
  0
LINE
  8
4
  6
CONTINUOUS
 10
81.414019
 20
47.054972
 11
81.414019
 21
48.554972
  0
LINE
  8
4
  6
CONTINUOUS
 10
80.819079
 20
48.554972
 11
81.554440
 21
48.554972
  0
POLYLINE
  8
3
  6
CONTINUOUS
 66
     1
  0
VERTEX
  8
3
  6
CONTINUOUS
 10
81.414019
 20
48.470855
  0
VERTEX
  8
3
  6
CONTINUOUS
 10
81.414019
 20
48.554972
  0
VERTEX
  8
3
  6
CONTINUOUS
 10
81.381388
 20
48.307111
  0
VERTEX
  8
3
  6
CONTINUOUS
 10
81.414019
 20
48.554972
  0
VERTEX
  8
3
  6
CONTINUOUS
 10
81.446651
 20
48.307111
  0
SEQEND
  8
3
  6
CONTINUOUS
  0
POLYLINE
  8
3
  6
CONTINUOUS
 66
     1
  0
VERTEX
  8
3
  6
CONTINUOUS
 10
81.414019
 20
47.141897
  0
VERTEX
  8
3
  6
CONTINUOUS
 10
81.414019
 20
47.054972
  0
VERTEX
  8
3
  6
CONTINUOUS
 10
81.446651
 20
47.302833
  0
VERTEX
  8
3
  6
CONTINUOUS
 10
81.414019
 20
47.054972
  0
VERTEX
  8
3
  6
CONTINUOUS
 10
81.381388
 20
47.302833
  0
SEQEND
  8
3
  6
CONTINUOUS
  0
LINE
  8
3
  6
ESTILO_TQS_0001
 10
80.902479
 20
48.638372
 11
83.600697
 21
48.638372
  0
LINE
  8
4
  6
CONTINUOUS
 10
80.083187
 20
46.654972
 11
80.819079
 21
46.654972
  0
LINE
  8
4
  6
CONTINUOUS
 10
80.083187
 20
46.654972
 11
80.083187
 21
47.154058
  0
LINE
  8
4
  6
CONTINUOUS
 10
79.088224
 20
47.154058
 11
80.083187
 21
47.154058
  0
LINE
  8
3
  6
CONTINUOUS
 10
53.116909
 20
44.558109
 11
75.718609
 21
44.338372
  0
LINE
  8
3
  6
CONTINUOUS
 10
75.718609
 20
44.338372
 11
80.902479
 21
45.938372
  0
LINE
  8
3
  6
CONTINUOUS
 10
80.902479
 20
45.938372
 11
80.902479
 21
46.738372
  0
LINE
  8
3
  6
CONTINUOUS
 10
80.602479
 20
46.738372
 11
80.902479
 21
46.738372
  0
LINE
  8
3
  6
CONTINUOUS
 10
80.602479
 20
46.438372
 11
80.602479
 21
46.738372
  0
LINE
  8
3
  6
CONTINUOUS
 10
75.718609
 20
46.438372
 11
80.602479
 21
46.438372
  0
LINE
  8
3
  6
CONTINUOUS
 10
75.718609
 20
45.938372
 11
75.718609
 21
46.438372
  0
LINE
  8
3
  6
CONTINUOUS
 10
53.916909
 20
46.142108
 11
75.718609
 21
45.938372
  0
LINE
  8
3
  6
CONTINUOUS
 10
53.916909
 20
46.142108
 11
53.916909
 21
46.433797
  0
LINE
  8
3
  6
CONTINUOUS
 10
53.566909
 20
46.933797
 11
53.916909
 21
46.433797
  0
LINE
  8
3
  6
CONTINUOUS
 10
53.471141
 20
47.834022
 11
53.566909
 21
46.933797
  0
LINE
  8
3
  6
CONTINUOUS
 10
53.426909
 20
47.873797
 11
53.471141
 21
47.834022
  0
LINE
  8
3
  6
CONTINUOUS
 10
53.156909
 20
47.873797
 11
53.426909
 21
47.873797
  0
LINE
  8
3
  6
CONTINUOUS
 10
53.116909
 20
47.833797
 11
53.156909
 21
47.873797
  0
LINE
  8
3
  6
CONTINUOUS
 10
53.116909
 20
44.558109
 11
53.116909
 21
47.833797
  0
LINE
  8
3
  6
CONTINUOUS
 10
53.116909
 20
32.842039
 11
80.902479
 21
32.571905
  0
LINE
  8
3
  6
CONTINUOUS
 10
75.718609
 20
32.622303
 11
80.902479
 21
34.222303
  0
LINE
  8
3
  6
CONTINUOUS
 10
80.902479
 20
32.571905
 11
80.902479
 21
35.022303
  0
LINE
  8
3
  6
CONTINUOUS
 10
80.602479
 20
35.022303
 11
80.902479
 21
35.022303
  0
LINE
  8
3
  6
CONTINUOUS
 10
80.602479
 20
34.722303
 11
80.602479
 21
35.022303
  0
LINE
  8
3
  6
CONTINUOUS
 10
75.718609
 20
34.722303
 11
80.602479
 21
34.722303
  0
LINE
  8
3
  6
CONTINUOUS
 10
75.718609
 20
34.222303
 11
75.718609
 21
34.722303
  0
LINE
  8
3
  6
CONTINUOUS
 10
53.916909
 20
34.426039
 11
75.718609
 21
34.222303
  0
LINE
  8
3
  6
CONTINUOUS
 10
53.916909
 20
34.426039
 11
53.916909
 21
34.717728
  0
LINE
  8
3
  6
CONTINUOUS
 10
53.566909
 20
35.217728
 11
53.916909
 21
34.717728
  0
LINE
  8
3
  6
CONTINUOUS
 10
53.471141
 20
36.117953
 11
53.566909
 21
35.217728
  0
LINE
  8
3
  6
CONTINUOUS
 10
53.426909
 20
36.157728
 11
53.471141
 21
36.117953
  0
LINE
  8
3
  6
CONTINUOUS
 10
53.156909
 20
36.157728
 11
53.426909
 21
36.157728
  0
LINE
  8
3
  6
CONTINUOUS
 10
53.116909
 20
36.117728
 11
53.156909
 21
36.157728
  0
LINE
  8
3
  6
CONTINUOUS
 10
53.116909
 20
34.042039
 11
53.116909
 21
36.117728
  0
POLYLINE
  8
3
  6
CONTINUOUS
 66
     1
  0
VERTEX
  8
3
  6
CONTINUOUS
 10
53.180309
 20
33.569589
  0
VERTEX
  8
3
  6
CONTINUOUS
 10
53.180309
 20
34.369589
  0
VERTEX
  8
3
  6
CONTINUOUS
 10
80.839079
 20
34.110567
  0
VERTEX
  8
3
  6
CONTINUOUS
 10
80.839079
 20
33.310567
  0
SEQEND
  8
3
  6
CONTINUOUS
  0
POLYLINE
  8
3
  6
CONTINUOUS
 66
     1
  0
VERTEX
  8
3
  6
CONTINUOUS
 10
53.180309
 20
33.704826
  0
VERTEX
  8
3
  6
CONTINUOUS
 10
53.180309
 20
32.904826
  0
VERTEX
  8
3
  6
CONTINUOUS
 10
80.839079
 20
32.635924
  0
VERTEX
  8
3
  6
CONTINUOUS
 10
80.839079
 20
33.435924
  0
SEQEND
  8
3
  6
CONTINUOUS
  0
POLYLINE
  8
7
  6
CONTINUOUS
 66
     1
  0
VERTEX
  8
7
  6
CONTINUOUS
 10
53.180309
 20
29.700932
  0
VERTEX
  8
7
  6
CONTINUOUS
 10
53.180309
 20
30.500932
  0
VERTEX
  8
7
  6
CONTINUOUS
 10
80.839079
 20
30.241910
  0
VERTEX
  8
7
  6
CONTINUOUS
 10
80.839079
 20
29.441910
  0
SEQEND
  8
7
  6
CONTINUOUS
  0
POLYLINE
  8
7
  6
CONTINUOUS
 66
     1
  0
VERTEX
  8
7
  6
CONTINUOUS
 10
53.180309
 20
27.776543
  0
VERTEX
  8
7
  6
CONTINUOUS
 10
53.180309
 20
26.976543
  0
VERTEX
  8
7
  6
CONTINUOUS
 10
80.839079
 20
26.707641
  0
VERTEX
  8
7
  6
CONTINUOUS
 10
80.839079
 20
27.507641
  0
SEQEND
  8
7
  6
CONTINUOUS
  0
LINE
  8
4
  6
CONTINUOUS
 10
53.156909
 20
36.927379
 11
80.902479
 21
36.997937
  0
LINE
  8
4
  6
CONTINUOUS
 10
80.902479
 20
35.122303
 11
80.902479
 21
37.147937
  0
LINE
  8
4
  6
CONTINUOUS
 10
53.156909
 20
36.257728
 11
53.156909
 21
37.077379
  0
LINE
  8
3
  6
CONTINUOUS
 10
80.654618
 20
37.030568
 11
80.902479
 21
36.997937
  0
LINE
  8
3
  6
CONTINUOUS
 10
80.654618
 20
36.965305
 11
80.902479
 21
36.997937
  0
LINE
  8
3
  6
CONTINUOUS
 10
53.156909
 20
36.927379
 11
53.404770
 21
36.894748
  0
LINE
  8
3
  6
CONTINUOUS
 10
53.156909
 20
36.927379
 11
53.404770
 21
36.960011
  0
POLYLINE
  8
7
  6
ESTILO_TQS_0001
 66
     1
  0
VERTEX
  8
7
  6
ESTILO_TQS_0001
 10
31.812528
 20
45.785474
  0
VERTEX
  8
7
  6
ESTILO_TQS_0001
 10
36.871988
 20
45.785474
  0
SEQEND
  8
7
  6
ESTILO_TQS_0001
  0
TEXT
  8
3
  6
CONTINUOUS
 10
33.363900
 20
45.925349
 40
0.180000
  1
104 N3 %%c 10 C/12
  0
CIRCLE
  8
7
  6
CONTINUOUS
 10
60.371122
 20
45.998996
 40
0.020000
  0
CIRCLE
  8
7
  6
CONTINUOUS
 10
60.370655
 20
44.524777
 40
0.020000
  0
TEXT
  8
5
  6
CONTINUOUS
 10
58.573728
 20
41.377796
 40
0.180000
 50
359.443000
  1
91 N1 %%c 12.5 C/12 C=COR
  0
LINE
  8
7
  6
ESTILO_TQS_0001
 10
22.217979
 20
53.424505
 11
29.046491
 21
28.473935
  0
TEXT
  8
5
  6
CONTINUOUS
 10
50.704308
 20
47.166268
 40
0.180000
 50
96.072456
  1
 75 
  0
TEXT
  8
5
  6
CONTINUOUS
 10
49.906692
 20
47.900397
 40
0.180000
 50
360.000000
  1
 11 
  0
TEXT
  8
5
  6
CONTINUOUS
 10
50.125890
 20
44.351135
 40
0.180000
 50
-0.557019
  1
 34 
  0
TEXT
  8
5
  6
CONTINUOUS
 10
50.513662
 20
46.990128
 40
0.180000
 50
304.992020
  1
 55 
  0
TEXT
  8
3
  6
CONTINUOUS
 10
38.246918
 20
35.157011
 40
0.180000
 50
104.854000
  1
19 N6 %%c 12.5 C/10
  0
TEXT
  8
3
  6
CONTINUOUS
 10
78.563900
 20
43.735188
 40
0.180000
 50
17.146000
  1
19 N6 %%c 12.5 C/10
  0
TEXT
  8
5
  6
CONTINUOUS
 10
81.109079
 20
26.747641
 40
0.180000
 50
90.000000
  1
 40 
  0
TEXT
  8
5
  6
CONTINUOUS
 10
53.090309
 20
27.016543
 40
0.180000
 50
90.000000
  1
 40 
  0
TEXT
  8
5
  6
CONTINUOUS
 10
81.109079
 20
29.481910
 40
0.180000
 50
90.000000
  1
 40 
  0
TEXT
  8
5
  6
CONTINUOUS
 10
53.090309
 20
29.740932
 40
0.180000
 50
90.000000
  1
 40 
  0
TEXT
  8
3
  6
CONTINUOUS
 10
62.236799
 20
34.564567
 40
0.180000
 50
360.000000
  1
5 N9 %%c 20
  0
TEXT
  8
3
  6
CONTINUOUS
 10
62.280693
 20
32.391803
 40
0.180000
 50
360.000000
  1
5 N9 %%c 20
  0
TEXT
  8
5
  6
CONTINUOUS
 10
82.553130
 20
45.608187
 40
0.180000
 50
17.152826
  1
 9 
  0
TEXT
  8
5
  6
CONTINUOUS
 10
82.947500
 20
47.118781
 40
0.180000
 50
90.000000
  1
 132 
  0
TEXT
  8
5
  6
CONTINUOUS
 10
82.514066
 20
48.664972
 40
0.180000
 50
0.000000
  1
 9 
  0
TEXT
  8
3
  6
CONTINUOUS
 10
90.311893
 20
45.686658
 40
0.180000
 50
90.000000
  1
12 N12 %%c 6.3 C/15
  0
TEXT
  8
5
  6
CONTINUOUS
 10
83.242397
 20
48.664972
 40
0.180000
 50
-0.000000
  1
 9 
  0
TEXT
  8
5
  6
CONTINUOUS
 10
83.489533
 20
46.961499
 40
0.180000
 50
90.000000
  1
 129 
  0
TEXT
  8
5
  6
CONTINUOUS
 10
83.281461
 20
45.607138
 40
0.180000
 50
17.152826
  1
 9 
  0
LINE
  8
4
  6
CONTINUOUS
 10
9.967507
 20
45.930326
 11
30.222632
 21
51.473781
  0
LINE
  8
4
  6
CONTINUOUS
 10
11.423875
 20
37.578330
 11
37.273330
 21
44.652851
  0
LINE
  8
4
  6
CONTINUOUS
 10
15.215119
 20
39.636225
 11
15.734678
 21
37.737825
  0
LINE
  8
4
  6
CONTINUOUS
 10
28.139815
 20
43.173489
 11
28.659374
 21
41.275089
  0
LINE
  8
4
  6
CONTINUOUS
 10
33.541181
 20
44.651749
 11
34.060740
 21
42.753348
  0
POLYLINE
  8
3
  6
CONTINUOUS
 66
     1
  0
VERTEX
  8
3
  6
CONTINUOUS
 10
28.460229
 20
42.240867
  0
VERTEX
  8
3
  6
CONTINUOUS
 10
28.399599
 20
42.224274
  0
VERTEX
  8
3
  6
CONTINUOUS
 10
28.630055
 20
42.321177
  0
VERTEX
  8
3
  6
CONTINUOUS
 10
28.399599
 20
42.224274
  0
VERTEX
  8
3
  6
CONTINUOUS
 10
28.647282
 20
42.258229
  0
SEQEND
  8
3
  6
CONTINUOUS
  0
POLYLINE
  8
3
  6
CONTINUOUS
 66
     1
  0
VERTEX
  8
3
  6
CONTINUOUS
 10
28.341682
 20
42.208423
  0
VERTEX
  8
3
  6
CONTINUOUS
 10
28.399599
 20
42.224274
  0
VERTEX
  8
3
  6
CONTINUOUS
 10
28.169143
 20
42.127371
  0
VERTEX
  8
3
  6
CONTINUOUS
 10
28.399599
 20
42.224274
  0
VERTEX
  8
3
  6
CONTINUOUS
 10
28.151916
 20
42.190319
  0
SEQEND
  8
3
  6
CONTINUOUS
  0
POLYLINE
  8
3
  6
CONTINUOUS
 66
     1
  0
VERTEX
  8
3
  6
CONTINUOUS
 10
32.511156
 20
43.349618
  0
VERTEX
  8
3
  6
CONTINUOUS
 10
32.450526
 20
43.333025
  0
VERTEX
  8
3
  6
CONTINUOUS
 10
32.680981
 20
43.429928
  0
VERTEX
  8
3
  6
CONTINUOUS
 10
32.450526
 20
43.333025
  0
VERTEX
  8
3
  6
CONTINUOUS
 10
32.698209
 20
43.366980
  0
SEQEND
  8
3
  6
CONTINUOUS
  0
POLYLINE
  8
3
  6
CONTINUOUS
 66
     1
  0
VERTEX
  8
3
  6
CONTINUOUS
 10
32.392608
 20
43.317174
  0
VERTEX
  8
3
  6
CONTINUOUS
 10
32.450526
 20
43.333025
  0
VERTEX
  8
3
  6
CONTINUOUS
 10
32.220070
 20
43.236122
  0
VERTEX
  8
3
  6
CONTINUOUS
 10
32.450526
 20
43.333025
  0
VERTEX
  8
3
  6
CONTINUOUS
 10
32.202842
 20
43.299070
  0
SEQEND
  8
3
  6
CONTINUOUS
  0
POLYLINE
  8
3
  6
CONTINUOUS
 66
     1
  0
VERTEX
  8
3
  6
CONTINUOUS
 10
33.861461
 20
43.719179
  0
VERTEX
  8
3
  6
CONTINUOUS
 10
33.800830
 20
43.702586
  0
VERTEX
  8
3
  6
CONTINUOUS
 10
34.031286
 20
43.799489
  0
VERTEX
  8
3
  6
CONTINUOUS
 10
33.800830
 20
43.702586
  0
VERTEX
  8
3
  6
CONTINUOUS
 10
34.048514
 20
43.736540
  0
SEQEND
  8
3
  6
CONTINUOUS
  0
POLYLINE
  8
3
  6
CONTINUOUS
 66
     1
  0
VERTEX
  8
3
  6
CONTINUOUS
 10
33.742913
 20
43.686735
  0
VERTEX
  8
3
  6
CONTINUOUS
 10
33.800830
 20
43.702586
  0
VERTEX
  8
3
  6
CONTINUOUS
 10
33.570375
 20
43.605683
  0
VERTEX
  8
3
  6
CONTINUOUS
 10
33.800830
 20
43.702586
  0
VERTEX
  8
3
  6
CONTINUOUS
 10
33.553147
 20
43.668631
  0
SEQEND
  8
3
  6
CONTINUOUS
  0
POLYLINE
  8
3
  6
CONTINUOUS
 66
     1
  0
VERTEX
  8
3
  6
CONTINUOUS
 10
37.215184
 20
44.637034
  0
VERTEX
  8
3
  6
CONTINUOUS
 10
37.273102
 20
44.652885
  0
VERTEX
  8
3
  6
CONTINUOUS
 10
37.042646
 20
44.555982
  0
VERTEX
  8
3
  6
CONTINUOUS
 10
37.273102
 20
44.652885
  0
VERTEX
  8
3
  6
CONTINUOUS
 10
37.025418
 20
44.618930
  0
SEQEND
  8
3
  6
CONTINUOUS
  0
POLYLINE
  8
3
  6
CONTINUOUS
 66
     1
  0
VERTEX
  8
3
  6
CONTINUOUS
 10
15.535530
 20
38.703614
  0
VERTEX
  8
3
  6
CONTINUOUS
 10
15.474900
 20
38.687021
  0
VERTEX
  8
3
  6
CONTINUOUS
 10
15.705355
 20
38.783924
  0
VERTEX
  8
3
  6
CONTINUOUS
 10
15.474900
 20
38.687021
  0
VERTEX
  8
3
  6
CONTINUOUS
 10
15.722583
 20
38.720976
  0
SEQEND
  8
3
  6
CONTINUOUS
  0
POLYLINE
  8
3
  6
CONTINUOUS
 66
     1
  0
VERTEX
  8
3
  6
CONTINUOUS
 10
15.416982
 20
38.671170
  0
VERTEX
  8
3
  6
CONTINUOUS
 10
15.474900
 20
38.687021
  0
VERTEX
  8
3
  6
CONTINUOUS
 10
15.244444
 20
38.590118
  0
VERTEX
  8
3
  6
CONTINUOUS
 10
15.474900
 20
38.687021
  0
VERTEX
  8
3
  6
CONTINUOUS
 10
15.227216
 20
38.653066
  0
SEQEND
  8
3
  6
CONTINUOUS
  0
POLYLINE
  8
3
  6
CONTINUOUS
 66
     1
  0
VERTEX
  8
3
  6
CONTINUOUS
 10
11.484572
 20
37.594945
  0
VERTEX
  8
3
  6
CONTINUOUS
 10
11.423942
 20
37.578351
  0
VERTEX
  8
3
  6
CONTINUOUS
 10
11.654398
 20
37.675254
  0
VERTEX
  8
3
  6
CONTINUOUS
 10
11.423942
 20
37.578351
  0
VERTEX
  8
3
  6
CONTINUOUS
 10
11.671625
 20
37.612306
  0
SEQEND
  8
3
  6
CONTINUOUS
  0
POLYLINE
  8
3
  6
CONTINUOUS
 66
     1
  0
VERTEX
  8
3
  6
CONTINUOUS
 10
10.028191
 20
45.946936
  0
VERTEX
  8
3
  6
CONTINUOUS
 10
9.967560
 20
45.930343
  0
VERTEX
  8
3
  6
CONTINUOUS
 10
10.198016
 20
46.027246
  0
VERTEX
  8
3
  6
CONTINUOUS
 10
9.967560
 20
45.930343
  0
VERTEX
  8
3
  6
CONTINUOUS
 10
10.215244
 20
45.964298
  0
SEQEND
  8
3
  6
CONTINUOUS
  0
POLYLINE
  8
3
  6
CONTINUOUS
 66
     1
  0
VERTEX
  8
3
  6
CONTINUOUS
 10
30.164487
 20
51.457964
  0
VERTEX
  8
3
  6
CONTINUOUS
 10
30.222404
 20
51.473815
  0
VERTEX
  8
3
  6
CONTINUOUS
 10
29.991949
 20
51.376912
  0
VERTEX
  8
3
  6
CONTINUOUS
 10
30.222404
 20
51.473815
  0
VERTEX
  8
3
  6
CONTINUOUS
 10
29.974721
 20
51.439860
  0
SEQEND
  8
3
  6
CONTINUOUS
  0
LINE
  8
4
  6
CONTINUOUS
 10
34.413951
 20
53.484505
 11
34.413951
 21
28.413935
  0
POLYLINE
  8
3
  6
CONTINUOUS
 66
     1
  0
VERTEX
  8
3
  6
CONTINUOUS
 10
34.413951
 20
53.372060
  0
VERTEX
  8
3
  6
CONTINUOUS
 10
34.413951
 20
53.484505
  0
VERTEX
  8
3
  6
CONTINUOUS
 10
34.446583
 20
53.236644
  0
VERTEX
  8
3
  6
CONTINUOUS
 10
34.413951
 20
53.484505
  0
VERTEX
  8
3
  6
CONTINUOUS
 10
34.381320
 20
53.236644
  0
SEQEND
  8
3
  6
CONTINUOUS
  0
POLYLINE
  8
3
  6
CONTINUOUS
 66
     1
  0
VERTEX
  8
3
  6
CONTINUOUS
 10
34.413951
 20
28.471706
  0
VERTEX
  8
3
  6
CONTINUOUS
 10
34.413951
 20
28.413935
  0
VERTEX
  8
3
  6
CONTINUOUS
 10
34.381320
 20
28.661797
  0
VERTEX
  8
3
  6
CONTINUOUS
 10
34.413951
 20
28.413935
  0
VERTEX
  8
3
  6
CONTINUOUS
 10
34.446583
 20
28.661797
  0
SEQEND
  8
3
  6
CONTINUOUS
  0
CIRCLE
  8
5
  6
CONTINUOUS
 10
34.413951
 20
45.785474
 40
0.100000
  0
CIRCLE
  8
5
  6
CONTINUOUS
 10
35.884630
 20
44.272785
 40
0.100000
  0
LINE
  8
7
  6
CONTINUOUS
 10
30.167301
 20
53.424505
 11
36.995813
 21
28.473935
  0
CIRCLE
  8
5
  6
CONTINUOUS
 10
32.895881
 20
43.454806
 40
0.100000
  0
CIRCLE
  8
5
  6
CONTINUOUS
 10
30.887516
 20
42.905163
 40
0.100000
  0
CIRCLE
  8
5
  6
CONTINUOUS
 10
19.411090
 20
39.764261
 40
0.100000
  0
CIRCLE
  8
5
  6
CONTINUOUS
 10
23.272455
 20
49.571645
 40
0.100000
  0
CIRCLE
  8
5
  6
CONTINUOUS
 10
13.836246
 20
38.238506
 40
0.100000
  0
LINE
  8
4
  6
CONTINUOUS
 10
18.702958
 20
51.954505
 11
18.702958
 21
29.943935
  0
POLYLINE
  8
3
  6
CONTINUOUS
 66
     1
  0
VERTEX
  8
3
  6
CONTINUOUS
 10
18.702958
 20
51.842060
  0
VERTEX
  8
3
  6
CONTINUOUS
 10
18.702958
 20
51.954505
  0
VERTEX
  8
3
  6
CONTINUOUS
 10
18.735589
 20
51.706644
  0
VERTEX
  8
3
  6
CONTINUOUS
 10
18.702958
 20
51.954505
  0
VERTEX
  8
3
  6
CONTINUOUS
 10
18.670326
 20
51.706644
  0
SEQEND
  8
3
  6
CONTINUOUS
  0
POLYLINE
  8
3
  6
CONTINUOUS
 66
     1
  0
VERTEX
  8
3
  6
CONTINUOUS
 10
18.702958
 20
30.001706
  0
VERTEX
  8
3
  6
CONTINUOUS
 10
18.702958
 20
29.943935
  0
VERTEX
  8
3
  6
CONTINUOUS
 10
18.670326
 20
30.191797
  0
VERTEX
  8
3
  6
CONTINUOUS
 10
18.702958
 20
29.943935
  0
VERTEX
  8
3
  6
CONTINUOUS
 10
18.735589
 20
30.191797
  0
SEQEND
  8
3
  6
CONTINUOUS
  0
CIRCLE
  8
5
  6
CONTINUOUS
 10
18.702942
 20
38.897987
 40
0.100000
  0
CIRCLE
  8
5
  6
CONTINUOUS
 10
18.702942
 20
44.307986
 40
0.100000
  0
TEXT
  8
3
  6
CONTINUOUS
 10
20.897571
 20
44.498575
 40
0.180000
  1
91 N2 %%c 10 C/12
  0
TEXT
  8
3
  6
CONTINUOUS
 10
21.300061
 20
43.961923
 40
0.180000
  1
(SUP.)
  0
TEXT
  8
3
  6
CONTINUOUS
 10
15.258645
 20
34.523440
 40
0.180000
 50
-254.459000
  1
(EMENDAS COM SOLDA)
  0
TEXT
  8
3
  6
CONTINUOUS
 10
21.172367
 20
34.732159
 40
0.180000
 50
-254.459000
  1
(EMENDAS COM SOLDA)
  0
TEXT
  8
3
  6
CONTINUOUS
 10
27.511329
 20
35.255533
 40
0.180000
 50
-256.000000
  1
(SUP.)
  0
TEXT
  8
3
  6
CONTINUOUS
 10
33.520188
 20
34.705316
 40
0.180000
 50
-254.459000
  1
(EMENDAS COM SOLDA)
  0
TEXT
  8
3
  6
CONTINUOUS
 10
35.693148
 20
34.476583
 40
0.180000
 50
-254.459000
  1
(EMENDAS COM SOLDA)
  0
TEXT
  8
3
  6
CONTINUOUS
 10
37.235786
 20
36.018235
 40
0.180000
 50
-256.000000
  1
(SUP.)
  0
TEXT
  8
3
  6
CONTINUOUS
 10
32.858782
 20
45.430560
 40
0.180000
  1
(SUP.)
  0
TEXT
  8
3
  6
CONTINUOUS
 10
12.760933
 20
38.036272
 40
0.180000
 50
-344.459000
  1
(210)
  0
TEXT
  8
3
  6
CONTINUOUS
 10
20.809509
 20
40.261466
 40
0.180000
 50
-344.459000
  1
(660)
  0
TEXT
  8
3
  6
CONTINUOUS
 10
29.741850
 20
42.691820
 40
0.180000
 50
-344.459000
  1
(210)
  0
TEXT
  8
3
  6
CONTINUOUS
 10
33.047110
 20
43.592384
 40
0.180000
 50
-344.459000
  1
(70)
  0
TEXT
  8
3
  6
CONTINUOUS
 10
35.020686
 20
44.119310
 40
0.180000
 50
-344.459000
  1
(190)
  0
TEXT
  8
5
  6
CONTINUOUS
 10
51.095098
 20
45.154081
 40
0.180000
 50
90.000000
  1
 89 
  0
TEXT
  8
5
  6
CONTINUOUS
 10
50.061898
 20
45.765646
 40
0.180000
 50
90.000000
  1
 158 
  0
LINE
  8
3
  6
CONTINUOUS
 10
54.245029
 20
18.058200
 11
52.658886
 21
18.058200
  0
LINE
  8
3
  6
CONTINUOUS
 10
52.658886
 20
18.058200
 11
52.658886
 21
16.858200
  0
LINE
  8
3
  6
CONTINUOUS
 10
52.658886
 20
16.858200
 11
54.005029
 21
16.858200
  0
LINE
  8
3
  6
CONTINUOUS
 10
54.005029
 20
16.858200
 11
54.005029
 21
15.745810
  0
LINE
  8
3
  6
CONTINUOUS
 10
78.651294
 20
17.145274
 11
77.065029
 21
17.145274
  0
LINE
  8
3
  6
CONTINUOUS
 10
78.651294
 20
15.545274
 11
77.305029
 21
15.545274
  0
LINE
  8
3
  6
CONTINUOUS
 10
77.065029
 20
17.145274
 11
77.065029
 21
14.633420
  0
LINE
  8
3
  6
CONTINUOUS
 10
77.305029
 20
15.545274
 11
77.305029
 21
14.633420
  0
LINE
  8
3
  6
CONTINUOUS
 10
54.245029
 20
18.058200
 11
54.245029
 21
15.745810
  0
LINE
  8
3
  6
CONTINUOUS
 10
78.651294
 20
17.145274
 11
78.651294
 21
15.545274
  0
LINE
  8
3
  6
CONTINUOUS
 10
52.905029
 20
16.858200
 11
52.905029
 21
15.745810
  0
LINE
  8
3
  6
CONTINUOUS
 10
53.005029
 20
16.858200
 11
53.005029
 21
15.745810
  0
LINE
  8
3
  6
CONTINUOUS
 10
53.905029
 20
16.858200
 11
53.905029
 21
15.745810
  0
LINE
  8
11
  6
ESTILO_TQS_0003
 10
53.455029
 20
16.858200
 11
53.455029
 21
15.745810
  0
LINE
  8
3
  6
CONTINUOUS
 10
77.405029
 20
15.545274
 11
77.405029
 21
14.633420
  0
LINE
  8
3
  6
CONTINUOUS
 10
78.305029
 20
15.545274
 11
78.305029
 21
14.633420
  0
LINE
  8
11
  6
ESTILO_TQS_0003
 10
77.855029
 20
15.545274
 11
77.855029
 21
14.633420
  0
LINE
  8
3
  6
CONTINUOUS
 10
78.405029
 20
15.545274
 11
78.405029
 21
14.633420
  0
POLYLINE
  8
3
  6
CONTINUOUS
 66
     1
  0
VERTEX
  8
3
  6
CONTINUOUS
 10
78.587894
 20
18.049525
  0
VERTEX
  8
3
  6
CONTINUOUS
 10
78.587894
 20
17.249525
  0
VERTEX
  8
3
  6
CONTINUOUS
 10
52.722286
 20
18.218703
  0
VERTEX
  8
3
  6
CONTINUOUS
 10
52.722286
 20
19.018703
  0
SEQEND
  8
3
  6
CONTINUOUS
  0
POLYLINE
  8
3
  6
CONTINUOUS
 66
     1
  0
VERTEX
  8
3
  6
CONTINUOUS
 10
78.591294
 20
18.722509
  0
VERTEX
  8
3
  6
CONTINUOUS
 10
52.718886
 20
19.691941
  0
SEQEND
  8
3
  6
CONTINUOUS
  0
POLYLINE
  8
7
  6
CONTINUOUS
 66
     1
  0
VERTEX
  8
7
  6
CONTINUOUS
 10
78.587894
 20
11.779602
  0
VERTEX
  8
7
  6
CONTINUOUS
 10
78.587894
 20
10.979602
  0
VERTEX
  8
7
  6
CONTINUOUS
 10
52.722286
 20
11.948779
  0
VERTEX
  8
7
  6
CONTINUOUS
 10
52.722286
 20
12.748779
  0
SEQEND
  8
7
  6
CONTINUOUS
  0
POLYLINE
  8
7
  6
CONTINUOUS
 66
     1
  0
VERTEX
  8
7
  6
CONTINUOUS
 10
78.591294
 20
20.963470
  0
VERTEX
  8
7
  6
CONTINUOUS
 10
52.718886
 20
21.932902
  0
SEQEND
  8
7
  6
CONTINUOUS
  0
POLYLINE
  8
7
  6
CONTINUOUS
 66
     1
  0
VERTEX
  8
7
  6
CONTINUOUS
 10
78.591294
 20
12.745523
  0
VERTEX
  8
7
  6
CONTINUOUS
 10
52.718886
 20
13.714955
  0
SEQEND
  8
7
  6
CONTINUOUS
  0
TEXT
  8
5
  6
CONTINUOUS
 10
52.632286
 20
11.988779
 40
0.180000
 50
90.000000
  1
 40 
  0
TEXT
  8
5
  6
CONTINUOUS
 10
78.857894
 20
11.019602
 40
0.180000
 50
90.000000
  1
 40 
  0
LINE
  8
3
  6
CONTINUOUS
 10
52.658886
 20
19.757634
 11
52.658886
 21
18.098201
  0
LINE
  8
3
  6
CONTINUOUS
 10
54.245029
 20
18.098201
 11
77.065029
 21
17.243142
  0
LINE
  8
3
  6
CONTINUOUS
 10
78.651294
 20
17.183705
 11
78.651294
 21
18.783705
  0
LINE
  8
3
  6
CONTINUOUS
 10
78.651294
 20
18.783705
 11
52.658886
 21
19.757634
  0
LINE
  8
3
  6
CONTINUOUS
 10
54.245029
 20
18.098201
 11
52.658886
 21
18.098201
  0
POLYLINE
  8
3
  6
CONTINUOUS
 66
     1
  0
VERTEX
  8
3
  6
CONTINUOUS
 10
52.853886
 20
19.563201
  0
VERTEX
  8
3
  6
CONTINUOUS
 10
52.783886
 20
19.633201
  0
VERTEX
  8
3
  6
CONTINUOUS
 10
52.723886
 20
19.633201
  0
VERTEX
  8
3
  6
CONTINUOUS
 10
52.723886
 20
18.163201
  0
VERTEX
  8
3
  6
CONTINUOUS
 10
53.694648
 20
18.163201
  0
VERTEX
  8
3
  6
CONTINUOUS
 10
53.694648
 20
19.633201
  0
VERTEX
  8
3
  6
CONTINUOUS
 10
52.723886
 20
19.633201
  0
VERTEX
  8
3
  6
CONTINUOUS
 10
52.723886
 20
19.563201
  0
VERTEX
  8
3
  6
CONTINUOUS
 10
52.793886
 20
19.503201
  0
SEQEND
  8
3
  6
CONTINUOUS
  0
POLYLINE
  8
3
  6
CONTINUOUS
 66
     1
  0
VERTEX
  8
3
  6
CONTINUOUS
 10
53.339267
 20
19.563201
  0
VERTEX
  8
3
  6
CONTINUOUS
 10
53.269267
 20
19.633201
  0
VERTEX
  8
3
  6
CONTINUOUS
 10
53.209267
 20
19.633201
  0
VERTEX
  8
3
  6
CONTINUOUS
 10
53.209267
 20
18.163201
  0
VERTEX
  8
3
  6
CONTINUOUS
 10
54.180029
 20
18.163201
  0
VERTEX
  8
3
  6
CONTINUOUS
 10
54.180029
 20
19.633201
  0
VERTEX
  8
3
  6
CONTINUOUS
 10
53.209267
 20
19.633201
  0
VERTEX
  8
3
  6
CONTINUOUS
 10
53.209267
 20
19.563201
  0
VERTEX
  8
3
  6
CONTINUOUS
 10
53.279267
 20
19.503201
  0
SEQEND
  8
3
  6
CONTINUOUS
  0
POLYLINE
  8
7
  6
CONTINUOUS
 66
     1
  0
VERTEX
  8
7
  6
CONTINUOUS
 10
49.545154
 20
19.563201
  0
VERTEX
  8
7
  6
CONTINUOUS
 10
49.475154
 20
19.633201
  0
VERTEX
  8
7
  6
CONTINUOUS
 10
49.415154
 20
19.633201
  0
VERTEX
  8
7
  6
CONTINUOUS
 10
49.415154
 20
18.163201
  0
VERTEX
  8
7
  6
CONTINUOUS
 10
50.385916
 20
18.163201
  0
VERTEX
  8
7
  6
CONTINUOUS
 10
50.385916
 20
19.633201
  0
VERTEX
  8
7
  6
CONTINUOUS
 10
49.415154
 20
19.633201
  0
VERTEX
  8
7
  6
CONTINUOUS
 10
49.415154
 20
19.563201
  0
VERTEX
  8
7
  6
CONTINUOUS
 10
49.485154
 20
19.503201
  0
SEQEND
  8
7
  6
CONTINUOUS
  0
POLYLINE
  8
7
  6
CONTINUOUS
 66
     1
  0
VERTEX
  8
7
  6
CONTINUOUS
 10
50.030535
 20
19.263201
  0
VERTEX
  8
7
  6
CONTINUOUS
 10
49.960535
 20
19.333201
  0
VERTEX
  8
7
  6
CONTINUOUS
 10
49.900535
 20
19.333201
  0
VERTEX
  8
7
  6
CONTINUOUS
 10
49.900535
 20
17.863201
  0
VERTEX
  8
7
  6
CONTINUOUS
 10
50.871297
 20
17.863201
  0
VERTEX
  8
7
  6
CONTINUOUS
 10
50.871297
 20
19.333201
  0
VERTEX
  8
7
  6
CONTINUOUS
 10
49.900535
 20
19.333201
  0
VERTEX
  8
7
  6
CONTINUOUS
 10
49.900535
 20
19.263201
  0
VERTEX
  8
7
  6
CONTINUOUS
 10
49.970535
 20
19.203201
  0
SEQEND
  8
7
  6
CONTINUOUS
  0
LINE
  8
3
  6
CONTINUOUS
 10
78.651294
 20
17.183705
 11
77.065029
 21
17.183705
  0
LINE
  8
3
  6
CONTINUOUS
 10
77.065029
 20
17.183705
 11
77.065029
 21
17.243142
  0
POLYLINE
  8
3
  6
CONTINUOUS
 66
     1
  0
VERTEX
  8
3
  6
CONTINUOUS
 10
77.260029
 20
18.648705
  0
VERTEX
  8
3
  6
CONTINUOUS
 10
77.190029
 20
18.718705
  0
VERTEX
  8
3
  6
CONTINUOUS
 10
77.130029
 20
18.718705
  0
VERTEX
  8
3
  6
CONTINUOUS
 10
77.130029
 20
17.248705
  0
VERTEX
  8
3
  6
CONTINUOUS
 10
78.100872
 20
17.248705
  0
VERTEX
  8
3
  6
CONTINUOUS
 10
78.100872
 20
18.718705
  0
VERTEX
  8
3
  6
CONTINUOUS
 10
77.130029
 20
18.718705
  0
VERTEX
  8
3
  6
CONTINUOUS
 10
77.130029
 20
18.648705
  0
VERTEX
  8
3
  6
CONTINUOUS
 10
77.200029
 20
18.588705
  0
SEQEND
  8
3
  6
CONTINUOUS
  0
POLYLINE
  8
3
  6
CONTINUOUS
 66
     1
  0
VERTEX
  8
3
  6
CONTINUOUS
 10
77.745450
 20
18.648705
  0
VERTEX
  8
3
  6
CONTINUOUS
 10
77.675450
 20
18.718705
  0
VERTEX
  8
3
  6
CONTINUOUS
 10
77.615450
 20
18.718705
  0
VERTEX
  8
3
  6
CONTINUOUS
 10
77.615450
 20
17.248705
  0
VERTEX
  8
3
  6
CONTINUOUS
 10
78.586294
 20
17.248705
  0
VERTEX
  8
3
  6
CONTINUOUS
 10
78.586294
 20
18.718705
  0
VERTEX
  8
3
  6
CONTINUOUS
 10
77.615450
 20
18.718705
  0
VERTEX
  8
3
  6
CONTINUOUS
 10
77.615450
 20
18.648705
  0
VERTEX
  8
3
  6
CONTINUOUS
 10
77.685450
 20
18.588705
  0
SEQEND
  8
3
  6
CONTINUOUS
  0
POLYLINE
  8
7
  6
CONTINUOUS
 66
     1
  0
VERTEX
  8
7
  6
CONTINUOUS
 10
81.249213
 20
18.649585
  0
VERTEX
  8
7
  6
CONTINUOUS
 10
81.179213
 20
18.719585
  0
VERTEX
  8
7
  6
CONTINUOUS
 10
81.119213
 20
18.719585
  0
VERTEX
  8
7
  6
CONTINUOUS
 10
81.119213
 20
17.249585
  0
VERTEX
  8
7
  6
CONTINUOUS
 10
82.090056
 20
17.249585
  0
VERTEX
  8
7
  6
CONTINUOUS
 10
82.090056
 20
18.719585
  0
VERTEX
  8
7
  6
CONTINUOUS
 10
81.119213
 20
18.719585
  0
VERTEX
  8
7
  6
CONTINUOUS
 10
81.119213
 20
18.649585
  0
VERTEX
  8
7
  6
CONTINUOUS
 10
81.189213
 20
18.589585
  0
SEQEND
  8
7
  6
CONTINUOUS
  0
POLYLINE
  8
7
  6
CONTINUOUS
 66
     1
  0
VERTEX
  8
7
  6
CONTINUOUS
 10
81.734634
 20
18.349585
  0
VERTEX
  8
7
  6
CONTINUOUS
 10
81.664634
 20
18.419585
  0
VERTEX
  8
7
  6
CONTINUOUS
 10
81.604634
 20
18.419585
  0
VERTEX
  8
7
  6
CONTINUOUS
 10
81.604634
 20
16.949585
  0
VERTEX
  8
7
  6
CONTINUOUS
 10
82.575478
 20
16.949585
  0
VERTEX
  8
7
  6
CONTINUOUS
 10
82.575478
 20
18.419585
  0
VERTEX
  8
7
  6
CONTINUOUS
 10
81.604634
 20
18.419585
  0
VERTEX
  8
7
  6
CONTINUOUS
 10
81.604634
 20
18.349585
  0
VERTEX
  8
7
  6
CONTINUOUS
 10
81.674634
 20
18.289585
  0
SEQEND
  8
7
  6
CONTINUOUS
  0
CIRCLE
  8
7
  6
CONTINUOUS
 10
52.739906
 20
19.602181
 40
0.016000
  0
CIRCLE
  8
7
  6
CONTINUOUS
 10
53.095932
 20
19.602181
 40
0.016000
  0
CIRCLE
  8
7
  6
CONTINUOUS
 10
53.451957
 20
19.602181
 40
0.016000
  0
CIRCLE
  8
7
  6
CONTINUOUS
 10
53.807983
 20
19.602181
 40
0.016000
  0
CIRCLE
  8
7
  6
CONTINUOUS
 10
54.164009
 20
19.602181
 40
0.016000
  0
CIRCLE
  8
7
  6
CONTINUOUS
 10
52.739906
 20
18.194221
 40
0.016000
  0
CIRCLE
  8
7
  6
CONTINUOUS
 10
53.095932
 20
18.194221
 40
0.016000
  0
CIRCLE
  8
7
  6
CONTINUOUS
 10
53.451957
 20
18.194221
 40
0.016000
  0
CIRCLE
  8
7
  6
CONTINUOUS
 10
53.807983
 20
18.194221
 40
0.016000
  0
CIRCLE
  8
7
  6
CONTINUOUS
 10
54.164009
 20
18.194221
 40
0.016000
  0
CIRCLE
  8
7
  6
CONTINUOUS
 10
77.146049
 20
18.687685
 40
0.016000
  0
CIRCLE
  8
7
  6
CONTINUOUS
 10
77.502105
 20
18.687685
 40
0.016000
  0
CIRCLE
  8
7
  6
CONTINUOUS
 10
77.858161
 20
18.687685
 40
0.016000
  0
CIRCLE
  8
7
  6
CONTINUOUS
 10
78.214217
 20
18.687685
 40
0.016000
  0
CIRCLE
  8
7
  6
CONTINUOUS
 10
78.570274
 20
18.687685
 40
0.016000
  0
CIRCLE
  8
7
  6
CONTINUOUS
 10
77.146049
 20
17.279725
 40
0.016000
  0
CIRCLE
  8
7
  6
CONTINUOUS
 10
77.502105
 20
17.279725
 40
0.016000
  0
CIRCLE
  8
7
  6
CONTINUOUS
 10
77.858161
 20
17.279725
 40
0.016000
  0
CIRCLE
  8
7
  6
CONTINUOUS
 10
78.214217
 20
17.279725
 40
0.016000
  0
CIRCLE
  8
7
  6
CONTINUOUS
 10
78.570274
 20
17.279725
 40
0.016000
  0
LINE
  8
1
  6
CONTINUOUS
 10
52.739906
 20
19.602181
 11
52.739906
 21
20.298242
  0
LINE
  8
1
  6
CONTINUOUS
 10
52.739906
 20
20.298242
 11
55.189964
 21
20.298242
  0
LINE
  8
1
  6
CONTINUOUS
 10
53.095932
 20
19.602181
 11
53.095932
 21
20.298242
  0
LINE
  8
1
  6
CONTINUOUS
 10
53.451957
 20
19.602181
 11
53.451957
 21
20.298242
  0
LINE
  8
1
  6
CONTINUOUS
 10
53.807983
 20
19.602181
 11
53.807983
 21
20.298242
  0
LINE
  8
1
  6
CONTINUOUS
 10
54.164009
 20
19.602181
 11
54.164009
 21
20.298242
  0
LINE
  8
1
  6
CONTINUOUS
 10
52.739906
 20
17.498161
 11
52.739906
 21
18.194221
  0
LINE
  8
1
  6
CONTINUOUS
 10
52.739906
 20
17.498161
 11
55.189964
 21
17.498161
  0
LINE
  8
1
  6
CONTINUOUS
 10
53.095932
 20
17.498161
 11
53.095932
 21
18.194221
  0
LINE
  8
1
  6
CONTINUOUS
 10
53.451957
 20
17.498161
 11
53.451957
 21
18.194221
  0
LINE
  8
1
  6
CONTINUOUS
 10
53.807983
 20
17.498161
 11
53.807983
 21
18.194221
  0
LINE
  8
1
  6
CONTINUOUS
 10
54.164009
 20
17.498161
 11
54.164009
 21
18.194221
  0
LINE
  8
1
  6
CONTINUOUS
 10
77.146049
 20
18.687685
 11
77.146049
 21
19.383746
  0
LINE
  8
1
  6
CONTINUOUS
 10
76.120093
 20
19.383746
 11
78.570151
 21
19.383746
  0
LINE
  8
1
  6
CONTINUOUS
 10
77.502074
 20
18.687685
 11
77.502074
 21
19.383746
  0
LINE
  8
1
  6
CONTINUOUS
 10
77.858100
 20
18.687685
 11
77.858100
 21
19.383746
  0
LINE
  8
1
  6
CONTINUOUS
 10
78.214125
 20
18.687685
 11
78.214125
 21
19.383746
  0
LINE
  8
1
  6
CONTINUOUS
 10
78.570151
 20
18.687685
 11
78.570151
 21
19.383746
  0
LINE
  8
1
  6
CONTINUOUS
 10
77.146049
 20
16.583665
 11
77.146049
 21
17.279725
  0
LINE
  8
1
  6
CONTINUOUS
 10
77.502074
 20
16.583665
 11
77.502074
 21
17.279725
  0
LINE
  8
1
  6
CONTINUOUS
 10
77.858100
 20
16.583665
 11
77.858100
 21
17.279725
  0
LINE
  8
1
  6
CONTINUOUS
 10
78.214125
 20
16.583665
 11
78.214125
 21
17.279725
  0
LINE
  8
1
  6
CONTINUOUS
 10
78.570151
 20
16.583665
 11
78.570151
 21
17.279725
  0
LINE
  8
1
  6
CONTINUOUS
 10
76.120093
 20
16.583665
 11
78.570151
 21
16.583665
  0
TEXT
  8
3
  6
CONTINUOUS
 10
67.449921
 20
21.518461
 40
0.180000
 50
357.854000
  1
(COMP.= 1293 CORR.)
  0
TEXT
  8
3
  6
CONTINUOUS
 10
67.459020
 20
21.045298
 40
0.180000
 50
357.854000
  1
(COMP.= 1293 CORR.)
  0
TEXT
  8
3
  6
CONTINUOUS
 10
71.214407
 20
21.381925
 40
0.180000
 50
357.854000
  1
(EMENDAS ALTERNADAS)
  0
TEXT
  8
3
  6
CONTINUOUS
 10
71.205628
 20
20.925400
 40
0.180000
 50
357.854000
  1
(EMENDAS ALTERNADAS)
  0
CIRCLE
  8
7
  6
CONTINUOUS
 10
65.793123
 20
19.229271
 40
0.016000
  0
LINE
  8
4
  6
CONTINUOUS
 10
65.811476
 20
19.719089
 11
65.793123
 21
19.229271
  0
LINE
  8
4
  6
CONTINUOUS
 10
66.051308
 20
19.710103
 11
66.032955
 21
19.220284
  0
LINE
  8
4
  6
CONTINUOUS
 10
66.291140
 20
19.701116
 11
66.272786
 21
19.211298
  0
LINE
  8
4
  6
CONTINUOUS
 10
66.530972
 20
19.692129
 11
66.512618
 21
19.202311
  0
CIRCLE
  8
7
  6
CONTINUOUS
 10
66.032955
 20
19.220284
 40
0.016000
  0
CIRCLE
  8
7
  6
CONTINUOUS
 10
66.272786
 20
19.211298
 40
0.016000
  0
CIRCLE
  8
7
  6
CONTINUOUS
 10
66.512618
 20
19.202311
 40
0.016000
  0
LINE
  8
4
  6
CONTINUOUS
 10
65.211897
 20
19.741555
 11
67.130551
 21
19.669663
  0
POLYLINE
  8
3
  6
CONTINUOUS
 66
     1
  0
VERTEX
  8
3
  6
CONTINUOUS
 10
65.253969
 20
19.739979
  0
VERTEX
  8
3
  6
CONTINUOUS
 10
65.211897
 20
19.741555
  0
VERTEX
  8
3
  6
CONTINUOUS
 10
65.460806
 20
19.764883
  0
VERTEX
  8
3
  6
CONTINUOUS
 10
65.211897
 20
19.741555
  0
VERTEX
  8
3
  6
CONTINUOUS
 10
65.458363
 20
19.699666
  0
SEQEND
  8
3
  6
CONTINUOUS
  0
POLYLINE
  8
3
  6
CONTINUOUS
 66
     1
  0
VERTEX
  8
3
  6
CONTINUOUS
 10
67.103491
 20
19.670677
  0
VERTEX
  8
3
  6
CONTINUOUS
 10
67.130551
 20
19.669663
  0
VERTEX
  8
3
  6
CONTINUOUS
 10
66.881642
 20
19.646335
  0
VERTEX
  8
3
  6
CONTINUOUS
 10
67.130551
 20
19.669663
  0
VERTEX
  8
3
  6
CONTINUOUS
 10
66.884085
 20
19.711553
  0
SEQEND
  8
3
  6
CONTINUOUS
  0
TEXT
  8
3
  6
CONTINUOUS
 10
65.968977
 20
19.814884
 40
0.180000
 50
357.854000
  1
N2
  0
CIRCLE
  8
7
  6
CONTINUOUS
 10
65.735965
 20
17.703867
 40
0.016000
  0
LINE
  8
4
  6
CONTINUOUS
 10
65.717612
 20
17.214048
 11
65.735965
 21
17.703867
  0
LINE
  8
4
  6
CONTINUOUS
 10
65.957443
 20
17.205062
 11
65.975797
 21
17.694880
  0
LINE
  8
4
  6
CONTINUOUS
 10
66.197275
 20
17.196075
 11
66.215629
 21
17.685894
  0
LINE
  8
4
  6
CONTINUOUS
 10
66.437107
 20
17.187088
 11
66.455461
 21
17.676907
  0
CIRCLE
  8
7
  6
CONTINUOUS
 10
65.975797
 20
17.694880
 40
0.016000
  0
CIRCLE
  8
7
  6
CONTINUOUS
 10
66.215629
 20
17.685894
 40
0.016000
  0
CIRCLE
  8
7
  6
CONTINUOUS
 10
66.455461
 20
17.676907
 40
0.016000
  0
LINE
  8
4
  6
CONTINUOUS
 10
65.118033
 20
17.236515
 11
67.036686
 21
17.164622
  0
POLYLINE
  8
3
  6
CONTINUOUS
 66
     1
  0
VERTEX
  8
3
  6
CONTINUOUS
 10
65.160105
 20
17.234938
  0
VERTEX
  8
3
  6
CONTINUOUS
 10
65.118033
 20
17.236515
  0
VERTEX
  8
3
  6
CONTINUOUS
 10
65.364498
 20
17.194625
  0
VERTEX
  8
3
  6
CONTINUOUS
 10
65.118033
 20
17.236515
  0
VERTEX
  8
3
  6
CONTINUOUS
 10
65.366942
 20
17.259843
  0
SEQEND
  8
3
  6
CONTINUOUS
  0
POLYLINE
  8
3
  6
CONTINUOUS
 66
     1
  0
VERTEX
  8
3
  6
CONTINUOUS
 10
67.009626
 20
17.165636
  0
VERTEX
  8
3
  6
CONTINUOUS
 10
67.036686
 20
17.164622
  0
VERTEX
  8
3
  6
CONTINUOUS
 10
66.790221
 20
17.206512
  0
VERTEX
  8
3
  6
CONTINUOUS
 10
67.036686
 20
17.164622
  0
VERTEX
  8
3
  6
CONTINUOUS
 10
66.787777
 20
17.141294
  0
SEQEND
  8
3
  6
CONTINUOUS
  0
TEXT
  8
3
  6
CONTINUOUS
 10
65.860763
 20
16.926861
 40
0.180000
 50
-2.146000
  1
N1
  0
TEXT
  8
3
  6
CONTINUOUS
 10
68.578710
 20
12.818523
 40
0.180000
 50
357.854000
  1
(COMP.= 1293 CORR.)
  0
TEXT
  8
3
  6
CONTINUOUS
 10
72.343197
 20
12.681987
 40
0.180000
 50
357.854000
  1
(EMENDAS ALTERNADAS)
  0
TEXT
  8
3
  6
CONTINUOUS
 10
64.256427
 20
11.655107
 40
0.180000
 50
357.854000
  1
CORRIDO (C=1293)
  0
TEXT
  8
3
  6
CONTINUOUS
 10
67.132193
 20
11.032699
 40
0.180000
 50
357.854000
  1
(EMENDAS COM SOLDA)
  0
TEXT
  8
5
  6
CONTINUOUS
 10
64.042492
 20
11.136060
 40
0.180000
 50
357.854000
  1
137 N7 %%c 25 C=1363
  0
LINE
  8
3
  6
ESTILO_TQS_0001
 10
75.718609
 20
46.438372
 11
75.718609
 21
52.390123
  0
LINE
  8
4
  6
CONTINUOUS
 10
75.568609
 20
49.053509
 11
77.067550
 21
49.053509
  0
LINE
  8
4
  6
CONTINUOUS
 10
75.718609
 20
49.085966
 11
75.718609
 21
49.203509
  0
LINE
  8
4
  6
CONTINUOUS
 10
76.917550
 20
49.780151
 11
76.917550
 21
48.903509
  0
CIRCLE
  8
3
  6
CONTINUOUS
 10
75.718609
 20
49.053509
 40
0.040000
  0
CIRCLE
  8
3
  6
CONTINUOUS
 10
75.718609
 20
49.053509
 40
0.020000
  0
CIRCLE
  8
3
  6
CONTINUOUS
 10
76.917550
 20
49.053509
 40
0.040000
  0
CIRCLE
  8
3
  6
CONTINUOUS
 10
76.917550
 20
49.053509
 40
0.020000
  0
TEXT
  8
3
  6
CONTINUOUS
 10
76.151691
 20
49.121017
 40
0.180000
  1
60
  0
TEXT
  8
5
  6
CONTINUOUS
 10
58.589877
 20
50.252984
 40
0.180000
 50
359.443000
  1
91 N2 %%c 10 C/12 C=COR
  0
TEXT
  8
5
  6
CONTINUOUS
 10
58.969547
 20
49.663413
 40
0.180000
 50
359.443000
  1
1186 - CORRIDO
  0
TEXT
  8
3
  6
CONTINUOUS
 10
63.072133
 20
50.194327
 40
0.180000
  1
(EMENDAS ALTERNADAS)
  0
TEXT
  8
3
  6
CONTINUOUS
 10
63.002427
 20
41.364920
 40
0.180000
  1
(EMENDAS ALTERNADAS)
  0
TEXT
  8
5
  6
CONTINUOUS
 10
60.818822
 20
40.791541
 40
0.180000
 50
359.443000
  1
1126 - CORRIDO
  0
CIRCLE
  8
7
  6
CONTINUOUS
 10
80.685879
 20
48.254972
 40
0.020000
  0
CIRCLE
  8
7
  6
CONTINUOUS
 10
80.819079
 20
48.254972
 40
0.020000
  0
CIRCLE
  8
7
  6
CONTINUOUS
 10
80.685879
 20
47.954972
 40
0.020000
  0
CIRCLE
  8
7
  6
CONTINUOUS
 10
80.819079
 20
47.954972
 40
0.020000
  0
CIRCLE
  8
7
  6
CONTINUOUS
 10
80.685879
 20
47.654972
 40
0.020000
  0
CIRCLE
  8
7
  6
CONTINUOUS
 10
80.819079
 20
47.654972
 40
0.020000
  0
CIRCLE
  8
7
  6
CONTINUOUS
 10
80.685879
 20
47.354972
 40
0.020000
  0
CIRCLE
  8
7
  6
CONTINUOUS
 10
80.819079
 20
47.354972
 40
0.020000
  0
CIRCLE
  8
7
  6
CONTINUOUS
 10
80.685879
 20
47.054972
 40
0.020000
  0
CIRCLE
  8
7
  6
CONTINUOUS
 10
80.819079
 20
47.054972
 40
0.020000
  0
TEXT
  8
3
  6
CONTINUOUS
 10
89.124005
 20
49.745750
 40
0.180000
  1
N11 + N12
  0
TEXT
  8
5
  6
CONTINUOUS
 10
83.957098
 20
45.668665
 40
0.180000
 50
90.000000
  1
7x12 N12 %%c 6.3 C/15 C=147
  0
TEXT
  8
5
  6
CONTINUOUS
 10
61.028851
 20
30.035603
 40
0.180000
 50
359.443000
  1
1383 - CORRIDO
  0
TEXT
  8
5
  6
CONTINUOUS
 10
60.893471
 20
27.074161
 40
0.180000
 50
359.443000
  1
1383 - CORRIDO
  0
TEXT
  8
3
  6
CONTINUOUS
 10
64.790229
 20
29.983949
 40
0.180000
  1
(EMENDAS ALTERNADAS)
  0
TEXT
  8
3
  6
CONTINUOUS
 10
64.844719
 20
27.059634
 40
0.180000
  1
(EMENDAS ALTERNADAS)
  0
TEXT
  8
5
  6
CONTINUOUS
 10
61.146959
 20
30.600994
 40
0.180000
 50
360.000000
  1
5 N9 %%c 20 C=COR
  0
TEXT
  8
5
  6
CONTINUOUS
 10
61.146959
 20
26.523334
 40
0.180000
 50
360.000000
  1
5 N9 %%c 20 C=COR
  0
TEXT
  8
5
  6
CONTINUOUS
 10
76.148689
 20
19.528468
 40
0.180000
  1
5 N9 %%c 20
  0
TEXT
  8
5
  6
CONTINUOUS
 10
76.148689
 20
16.299800
 40
0.180000
  1
5 N9 %%c 20
  0
TEXT
  8
5
  6
CONTINUOUS
 10
62.804883
 20
21.696371
 40
0.180000
 50
357.854000
  1
53 N5 %%c 10 C/20 C=COR
  0
TEXT
  8
3
  6
CONTINUOUS
 10
63.104687
 20
47.654551
 40
0.180000
 50
359.443000
  1
53 N5 %%c 10 C/20
  0
TEXT
  8
5
  6
CONTINUOUS
 10
62.791802
 20
21.198902
 40
0.180000
 50
357.854000
  1
12 N4 %%c 6.3 C/20 C=COR
  0
TEXT
  8
3
  6
CONTINUOUS
 10
76.220327
 20
47.919847
 40
0.180000
  1
12 N4 %%c 6.3 C/20
  0
TEXT
  8
3
  6
CONTINUOUS
 10
36.987087
 20
35.248777
 40
0.180000
 50
-255.000000
  1
12 N4 %%c 6.3 C/20
  0
TEXT
  8
3
  6
CONTINUOUS
 10
27.236715
 20
34.699475
 40
0.180000
 50
105.443000
  1
53 N5 %%c 10 C/20
  0
TEXT
  8
5
  6
CONTINUOUS
 10
63.997652
 20
12.934487
 40
0.180000
 50
357.854000
  1
19 N6 %%c 12.5 C/10 C=COR
  0
TEXT
  8
3
  6
CONTINUOUS
 10
53.748371
 20
43.202402
 40
0.180000
 50
359.459000
  1
31 N7 %%c 25 C/7
  0
TEXT
  8
3
  6
CONTINUOUS
 10
62.911429
 20
43.196776
 40
0.180000
 50
359.459000
  1
65 N7 %%c 25 C/10
  0
TEXT
  8
3
  6
CONTINUOUS
 10
72.089817
 20
43.031321
 40
0.180000
 50
359.459000
  1
31 N7 %%c 25 C/7
  0
TEXT
  8
3
  6
CONTINUOUS
 10
75.961221
 20
42.910444
 40
0.180000
 50
17.459000
  1
10 N7 %%c 25 C/7
  0
TEXT
  8
3
  6
CONTINUOUS
 10
14.702060
 20
34.453866
 40
0.180000
 50
-254.459000
  1
31 N7 %%c 25 C/7
  0
TEXT
  8
3
  6
CONTINUOUS
 10
32.787108
 20
35.390392
 40
0.180000
 50
-254.459000
  1
31 N7 %%c 25 C/7
  0
TEXT
  8
3
  6
CONTINUOUS
 10
35.155415
 20
34.827599
 40
0.180000
 50
-254.459000
  1
10 N7 %%c 25 C/7
  0
TEXT
  8
5
  6
CONTINUOUS
 10
48.226528
 20
17.466652
 40
0.180000
  1
 140 N8 %%c 8 C/20 C=260
  0
TEXT
  8
3
  6
CONTINUOUS
 10
53.824106
 20
20.435118
 40
0.180000
  1
5 N9 %%c 20
  0
TEXT
  8
3
  6
CONTINUOUS
 10
53.824106
 20
17.158073
 40
0.180000
  1
5 N9 %%c 20
  0
TEXT
  8
5
  6
CONTINUOUS
 10
49.540535
 20
19.678201
 40
0.180000
  1
 47 
  0
TEXT
  8
5
  6
CONTINUOUS
 10
49.370154
 20
18.538201
 40
0.180000
 50
90.000000
  1
 74 
  0
TEXT
  8
5
  6
CONTINUOUS
 10
81.244593
 20
18.764585
 40
0.180000
  1
 47 
  0
TEXT
  8
5
  6
CONTINUOUS
 10
81.074213
 20
17.624585
 40
0.180000
 50
90.000000
  1
 74 
  0
TEXT
  8
5
  6
CONTINUOUS
 10
79.930586
 20
16.553036
 40
0.180000
  1
 140 N8 %%c 8 C/20 C=260
  0
TEXT
  8
5
  6
CONTINUOUS
 10
43.464232
 20
43.602220
 40
0.180000
  1
7x8 N10 %%c 6.3 C=176
  0
TEXT
  8
3
  6
CONTINUOUS
 10
52.519663
 20
46.596312
 40
0.180000
 50
90.000000
  1
4 N10 %%c 6.3
  0
TEXT
  8
3
  6
CONTINUOUS
 10
54.727067
 20
46.982072
 40
0.180000
 50
90.000000
  1
4 N10 %%c 6.3
  0
TEXT
  8
3
  6
CONTINUOUS
 10
44.231231
 20
48.049232
 40
0.180000
  1
2 N10
  0
TEXT
  8
3
  6
CONTINUOUS
 10
44.231231
 20
47.502645
 40
0.180000
  1
2 N10
  0
TEXT
  8
3
  6
CONTINUOUS
 10
44.231231
 20
47.032645
 40
0.180000
  1
2 N10
  0
TEXT
  8
3
  6
CONTINUOUS
 10
44.231231
 20
46.532645
 40
0.180000
  1
2 N10
  0
TEXT
  8
5
  6
CONTINUOUS
 10
49.710314
 20
44.765713
 40
0.180000
 50
90.000000
  1
7X12 N11 %%c 8 C/15 C=422
  0
TEXT
  8
3
  6
CONTINUOUS
 10
43.972498
 20
48.973279
 40
0.180000
  1
12 N11 %%c 8 C/15
  0
TEXT
  8
3
  6
CONTINUOUS
 10
88.516641
 20
48.195222
 40
0.180000
  1
2x6 N14 %%c 6.3 C/15
  0
TEXT
  8
5
  6
CONTINUOUS
 10
88.132466
 20
44.759697
 40
0.180000
  1
7x12 N14 %%c 6.3 C/15 C=176
  0
TEXT
  8
5
  6
CONTINUOUS
 10
82.513773
 20
45.616976
 40
0.180000
 50
90.000000
  1
7x12 N13 %%c 6.3 C/15 C=150
  0
TEXT
  8
3
  6
CONTINUOUS
 10
88.990764
 20
45.677664
 40
0.180000
 50
90.000000
  1
12 N13 %%c 6.3 C/15
  0
TEXT
  8
5
  6
CONTINUOUS
 10
78.476530
 20
47.295814
 40
0.180000
 50
359.443000
  1
2 N5 %%c 10
  0
TEXT
  8
3
  6
CONTINUOUS
 10
81.701146
 20
46.437878
 40
0.180000
 50
90.000000
  1
2x6 N14 %%c 6.3 C/15
  0
TEXT
  8
3
  6
CONTINUOUS
 10
20.479623
 20
35.262623
 40
0.180000
 50
-254.459000
  1
65 N7 %%c 25 C/10
  0
TEXT
  8
3
  6
CONTINUOUS
 10
60.929042
 20
37.146933
 40
0.180000
 50
360.000000
  1
2x70 N8 %%c 8 C/20 (DUPLOS)
  0
TEXT
  8
7
  6
CONTINUOUS
 10
108.363216
 20
40.016272
 40
0.265795
  1
EMENDAS COM SOLDA
  0
LINE
  8
6
  6
CONTINUOUS
 10
108.251724
 20
34.621073
 11
108.251724
 21
35.380448
  0
LINE
  8
6
  6
CONTINUOUS
 10
109.011099
 20
33.861698
 11
109.770474
 21
33.861698
  0
LINE
  8
6
  6
CONTINUOUS
 10
108.479536
 20
34.621073
 11
108.479536
 21
35.380448
  0
LINE
  8
6
  6
CONTINUOUS
 10
109.011099
 20
34.089510
 11
109.770474
 21
34.089510
  0
ARC
  8
6
  6
CONTINUOUS
 10
109.011099
 20
34.621073
 40
0.759375
 50
180.000000
 51
270.000000
  0
ARC
  8
6
  6
CONTINUOUS
 10
109.011099
 20
34.621073
 40
0.531563
 50
180.000000
 51
270.000000
  0
LINE
  8
3
  6
CONTINUOUS
 10
107.720161
 20
34.621073
 11
109.238911
 21
34.621073
  0
LINE
  8
3
  6
CONTINUOUS
 10
109.011099
 20
33.330135
 11
109.011099
 21
34.848885
  0
TEXT
  8
3
  6
CONTINUOUS
 10
108.628215
 20
34.661040
 40
0.136687
  1
R=
  0
ARC
  8
3
  6
CONTINUOUS
 10
109.011099
 20
34.621073
 40
1.183223
 50
180.000000
 51
270.000000
  0
LINE
  8
3
  6
CONTINUOUS
 10
107.910005
 20
34.621073
 11
108.017719
 21
34.621073
  0
LINE
  8
3
  6
CONTINUOUS
 10
107.908422
 20
34.540529
 11
107.747333
 21
34.701616
  0
LINE
  8
3
  6
CONTINUOUS
 10
109.011099
 20
33.519979
 11
109.011099
 21
33.627694
  0
LINE
  8
3
  6
CONTINUOUS
 10
109.091641
 20
33.518394
 11
108.930556
 21
33.357306
  0
TEXT
  8
3
  6
CONTINUOUS
 10
108.029455
 20
33.639429
 40
0.136687
 50
-45.000000
  1
C=
  0
LINE
  8
3
  6
CONTINUOUS
 10
110.288610
 20
34.279354
 11
110.288610
 21
33.671854
  0
LINE
  8
3
  6
CONTINUOUS
 10
109.960317
 20
34.089510
 11
110.478454
 21
34.089510
  0
LINE
  8
3
  6
CONTINUOUS
 10
109.960317
 20
33.861698
 11
110.478454
 21
33.861698
  0
CIRCLE
  8
3
  6
CONTINUOUS
 10
110.288610
 20
34.089510
 40
0.037931
  0
CIRCLE
  8
3
  6
CONTINUOUS
 10
110.288610
 20
34.089510
 40
0.018908
  0
CIRCLE
  8
3
  6
CONTINUOUS
 10
110.288610
 20
33.861698
 40
0.037931
  0
CIRCLE
  8
3
  6
CONTINUOUS
 10
110.288610
 20
33.861698
 40
0.018908
  0
TEXT
  8
3
  6
CONTINUOUS
 10
109.669033
 20
34.207047
 40
0.136687
  1
%%c mm
  0
LINE
  8
8
  6
CONTINUOUS
 10
107.513717
 20
36.655046
 11
116.016602
 21
36.655046
  0
LINE
  8
8
  6
CONTINUOUS
 10
116.016602
 20
36.655046
 11
116.016602
 21
32.858171
  0
LINE
  8
8
  6
CONTINUOUS
 10
116.016602
 20
32.858171
 11
107.513717
 21
32.858171
  0
LINE
  8
8
  6
CONTINUOUS
 10
107.513717
 20
32.858171
 11
107.513717
 21
36.655046
  0
LINE
  8
3
  6
CONTINUOUS
 10
109.011099
 20
34.621073
 11
108.626754
 21
34.253872
  0
LINE
  8
3
  6
CONTINUOUS
 10
108.626754
 20
34.253872
 11
108.769523
 21
34.431398
  0
LINE
  8
3
  6
CONTINUOUS
 10
108.769523
 20
34.431398
 11
108.626754
 21
34.253872
  0
LINE
  8
3
  6
CONTINUOUS
 10
108.626754
 20
34.253872
 11
108.810606
 21
34.388397
  0
LINE
  8
6
  6
CONTINUOUS
 10
108.251724
 20
35.380448
 11
108.260634
 21
35.376269
  0
LINE
  8
6
  6
CONTINUOUS
 10
108.260634
 20
35.376269
 11
108.269347
 21
35.372979
  0
LINE
  8
6
  6
CONTINUOUS
 10
108.269347
 20
35.372979
 11
108.281491
 21
35.369585
  0
LINE
  8
6
  6
CONTINUOUS
 10
108.281491
 20
35.369585
 11
108.301762
 21
35.366755
  0
LINE
  8
6
  6
CONTINUOUS
 10
108.301762
 20
35.366755
 11
108.324057
 21
35.367521
  0
LINE
  8
6
  6
CONTINUOUS
 10
108.324057
 20
35.367521
 11
108.343524
 21
35.371568
  0
LINE
  8
6
  6
CONTINUOUS
 10
108.343524
 20
35.371568
 11
108.352968
 21
35.374759
  0
LINE
  8
6
  6
CONTINUOUS
 10
108.352968
 20
35.374759
 11
108.365630
 21
35.380448
  0
LINE
  8
6
  6
CONTINUOUS
 10
108.479536
 20
35.380448
 11
108.470626
 21
35.384627
  0
LINE
  8
6
  6
CONTINUOUS
 10
108.470626
 20
35.384627
 11
108.461916
 21
35.387917
  0
LINE
  8
6
  6
CONTINUOUS
 10
108.461916
 20
35.387917
 11
108.449769
 21
35.391311
  0
LINE
  8
6
  6
CONTINUOUS
 10
108.449769
 20
35.391311
 11
108.429498
 21
35.394141
  0
LINE
  8
6
  6
CONTINUOUS
 10
108.429498
 20
35.394141
 11
108.407203
 21
35.393374
  0
LINE
  8
6
  6
CONTINUOUS
 10
108.407203
 20
35.393374
 11
108.387740
 21
35.389327
  0
LINE
  8
6
  6
CONTINUOUS
 10
108.387740
 20
35.389327
 11
108.378292
 21
35.386137
  0
LINE
  8
6
  6
CONTINUOUS
 10
108.378292
 20
35.386137
 11
108.365630
 21
35.380448
  0
LINE
  8
6
  6
CONTINUOUS
 10
109.770474
 20
33.861698
 11
109.774653
 21
33.870609
  0
LINE
  8
6
  6
CONTINUOUS
 10
109.774653
 20
33.870609
 11
109.777941
 21
33.879319
  0
LINE
  8
6
  6
CONTINUOUS
 10
109.777941
 20
33.879319
 11
109.781338
 21
33.891465
  0
LINE
  8
6
  6
CONTINUOUS
 10
109.781338
 20
33.891465
 11
109.784167
 21
33.911735
  0
LINE
  8
6
  6
CONTINUOUS
 10
109.784167
 20
33.911735
 11
109.783399
 21
33.934032
  0
LINE
  8
6
  6
CONTINUOUS
 10
109.783399
 20
33.934032
 11
109.779354
 21
33.953496
  0
LINE
  8
6
  6
CONTINUOUS
 10
109.779354
 20
33.953496
 11
109.776162
 21
33.962941
  0
LINE
  8
6
  6
CONTINUOUS
 10
109.776162
 20
33.962941
 11
109.770474
 21
33.975604
  0
LINE
  8
6
  6
CONTINUOUS
 10
109.770474
 20
34.089510
 11
109.766295
 21
34.080600
  0
LINE
  8
6
  6
CONTINUOUS
 10
109.766295
 20
34.080600
 11
109.763006
 21
34.071889
  0
LINE
  8
6
  6
CONTINUOUS
 10
109.763006
 20
34.071889
 11
109.759610
 21
34.059743
  0
LINE
  8
6
  6
CONTINUOUS
 10
109.759610
 20
34.059743
 11
109.756781
 21
34.039474
  0
LINE
  8
6
  6
CONTINUOUS
 10
109.756781
 20
34.039474
 11
109.757548
 21
34.017177
  0
LINE
  8
6
  6
CONTINUOUS
 10
109.757548
 20
34.017177
 11
109.761593
 21
33.997712
  0
LINE
  8
6
  6
CONTINUOUS
 10
109.761593
 20
33.997712
 11
109.764786
 21
33.988267
  0
LINE
  8
6
  6
CONTINUOUS
 10
109.764786
 20
33.988267
 11
109.770474
 21
33.975605
  0
LINE
  8
8
  6
CONTINUOUS
 10
107.513717
 20
40.921330
 11
116.016602
 21
40.921330
  0
LINE
  8
8
  6
CONTINUOUS
 10
116.016602
 20
40.921330
 11
116.016602
 21
37.124455
  0
LINE
  8
8
  6
CONTINUOUS
 10
116.016602
 20
37.124455
 11
107.513717
 21
37.124455
  0
LINE
  8
8
  6
CONTINUOUS
 10
107.513717
 20
37.124455
 11
107.513717
 21
40.921330
  0
LINE
  8
7
  6
CONTINUOUS
 10
107.891068
 20
30.628447
 11
109.549601
 21
30.628447
  0
LINE
  8
7
  6
CONTINUOUS
 10
107.891068
 20
30.352551
 11
108.809415
 21
30.352551
  0
LINE
  8
7
  6
CONTINUOUS
 10
109.053376
 20
30.551566
 11
110.720079
 21
30.551566
  0
LINE
  8
7
  6
CONTINUOUS
 10
108.313190
 20
30.275670
 11
110.720079
 21
30.275670
  0
LINE
  8
7
  6
CONTINUOUS
 10
107.891068
 20
30.904343
 11
110.289786
 21
30.904343
  0
LINE
  8
7
  6
CONTINUOUS
 10
109.793562
 20
30.827462
 11
110.720079
 21
30.827462
  0
LINE
  8
4
  6
CONTINUOUS
 10
108.203840
 20
29.810158
 11
108.918765
 21
29.810158
  0
LINE
  8
4
  6
CONTINUOUS
 10
108.313190
 20
30.381974
 11
108.313190
 21
29.700808
  0
LINE
  8
4
  6
CONTINUOUS
 10
108.809415
 20
30.473464
 11
108.809415
 21
29.700808
  0
CIRCLE
  8
3
  6
CONTINUOUS
 10
108.313190
 20
29.810158
 40
0.022758
  0
CIRCLE
  8
3
  6
CONTINUOUS
 10
108.313190
 20
29.810158
 40
0.011345
  0
CIRCLE
  8
3
  6
CONTINUOUS
 10
108.809415
 20
29.810158
 40
0.022758
  0
CIRCLE
  8
3
  6
CONTINUOUS
 10
108.809415
 20
29.810158
 40
0.011345
  0
LINE
  8
4
  6
CONTINUOUS
 10
108.700065
 20
29.810158
 11
109.162726
 21
29.810158
  0
LINE
  8
4
  6
CONTINUOUS
 10
109.053376
 20
30.702191
 11
109.053376
 21
29.700808
  0
CIRCLE
  8
3
  6
CONTINUOUS
 10
108.809415
 20
29.810158
 40
0.022758
  0
CIRCLE
  8
3
  6
CONTINUOUS
 10
108.809415
 20
29.810158
 40
0.011345
  0
CIRCLE
  8
3
  6
CONTINUOUS
 10
109.053376
 20
29.810158
 40
0.022758
  0
CIRCLE
  8
3
  6
CONTINUOUS
 10
109.053376
 20
29.810158
 40
0.011345
  0
LINE
  8
4
  6
CONTINUOUS
 10
108.944026
 20
29.810158
 11
109.658951
 21
29.810158
  0
LINE
  8
4
  6
CONTINUOUS
 10
109.549601
 20
30.702191
 11
109.549601
 21
29.700808
  0
CIRCLE
  8
3
  6
CONTINUOUS
 10
109.053376
 20
29.810158
 40
0.022758
  0
CIRCLE
  8
3
  6
CONTINUOUS
 10
109.053376
 20
29.810158
 40
0.011345
  0
CIRCLE
  8
3
  6
CONTINUOUS
 10
109.549601
 20
29.810158
 40
0.022758
  0
CIRCLE
  8
3
  6
CONTINUOUS
 10
109.549601
 20
29.810158
 40
0.011345
  0
LINE
  8
4
  6
CONTINUOUS
 10
109.440251
 20
29.810158
 11
109.902912
 21
29.810158
  0
LINE
  8
4
  6
CONTINUOUS
 10
109.793562
 20
30.953790
 11
109.793562
 21
29.700808
  0
CIRCLE
  8
3
  6
CONTINUOUS
 10
109.549601
 20
29.810158
 40
0.022758
  0
CIRCLE
  8
3
  6
CONTINUOUS
 10
109.549601
 20
29.810158
 40
0.011345
  0
CIRCLE
  8
3
  6
CONTINUOUS
 10
109.793562
 20
29.810158
 40
0.022758
  0
CIRCLE
  8
3
  6
CONTINUOUS
 10
109.793562
 20
29.810158
 40
0.011345
  0
LINE
  8
4
  6
CONTINUOUS
 10
109.684212
 20
29.810158
 11
110.399136
 21
29.810158
  0
LINE
  8
4
  6
CONTINUOUS
 10
110.289786
 20
31.030032
 11
110.289786
 21
29.700808
  0
CIRCLE
  8
3
  6
CONTINUOUS
 10
109.793562
 20
29.810158
 40
0.022758
  0
CIRCLE
  8
3
  6
CONTINUOUS
 10
109.793562
 20
29.810158
 40
0.011345
  0
CIRCLE
  8
3
  6
CONTINUOUS
 10
110.289786
 20
29.810158
 40
0.022758
  0
CIRCLE
  8
3
  6
CONTINUOUS
 10
110.289786
 20
29.810158
 40
0.011345
  0
LINE
  8
6
  6
CONTINUOUS
 10
112.434398
 20
31.588377
 11
114.712521
 21
31.588377
  0
LINE
  8
6
  6
CONTINUOUS
 10
114.712521
 20
31.588377
 11
114.712521
 21
28.930565
  0
LINE
  8
6
  6
CONTINUOUS
 10
114.712521
 20
28.930565
 11
112.434398
 21
28.930565
  0
LINE
  8
6
  6
CONTINUOUS
 10
112.434398
 20
28.930565
 11
112.434398
 21
31.588377
  0
LINE
  8
6
  6
CONTINUOUS
 10
112.434398
 20
31.208690
 11
114.712521
 21
31.208690
  0
LINE
  8
3
  6
CONTINUOUS
 10
112.434398
 20
30.449315
 11
114.712521
 21
30.449315
  0
LINE
  8
3
  6
CONTINUOUS
 10
112.434398
 20
30.069627
 11
114.712521
 21
30.069627
  0
LINE
  8
6
  6
CONTINUOUS
 10
113.193773
 20
28.930565
 11
113.193773
 21
31.588377
  0
LINE
  8
6
  6
CONTINUOUS
 10
113.953148
 20
28.930565
 11
113.953148
 21
31.588377
  0
TEXT
  8
3
  6
CONTINUOUS
 10
112.509397
 20
31.320521
 40
0.167063
  1
%%c mm
  0
LINE
  8
8
  6
CONTINUOUS
 10
107.513717
 20
32.348508
 11
116.016602
 21
32.348508
  0
LINE
  8
8
  6
CONTINUOUS
 10
116.016602
 20
32.348508
 11
116.016602
 21
28.551633
  0
LINE
  8
8
  6
CONTINUOUS
 10
116.016602
 20
28.551633
 11
107.513717
 21
28.551633
  0
LINE
  8
8
  6
CONTINUOUS
 10
107.513717
 20
28.551633
 11
107.513717
 21
32.348508
  0
TEXT
  8
7
  6
CONTINUOUS
 10
108.552897
 20
31.787240
 40
0.227812
  1
EMENDAS ALTERNADAS
  0
TEXT
  8
3
  6
CONTINUOUS
 10
113.441538
 20
31.320521
 40
0.167063
  1
A
  0
TEXT
  8
3
  6
CONTINUOUS
 10
114.200916
 20
31.320521
 40
0.167063
  1
B
  0
TEXT
  8
3
  6
CONTINUOUS
 10
112.509397
 20
30.561146
 40
0.167063
  1
8.0
  0
TEXT
  8
3
  6
CONTINUOUS
 10
112.509397
 20
30.181458
 40
0.167063
  1
10.0
  0
TEXT
  8
3
  6
CONTINUOUS
 10
108.474998
 20
29.836085
 40
0.136687
  1
A
  0
TEXT
  8
3
  6
CONTINUOUS
 10
108.878297
 20
29.836778
 40
0.136687
  1
B
  0
TEXT
  8
3
  6
CONTINUOUS
 10
109.253895
 20
29.842224
 40
0.136687
  1
A
  0
TEXT
  8
3
  6
CONTINUOUS
 10
109.994080
 20
29.842224
 40
0.136687
  1
A
  0
TEXT
  8
3
  6
CONTINUOUS
 10
109.618483
 20
29.836778
 40
0.136687
  1
B
  0
TEXT
  8
3
  6
CONTINUOUS
 10
112.509397
 20
29.801771
 40
0.167063
  1
12.5
  0
LINE
  8
6
  6
CONTINUOUS
 10
110.731389
 20
35.717384
 11
113.768889
 21
35.717384
  0
LINE
  8
6
  6
CONTINUOUS
 10
113.768889
 20
35.717384
 11
113.768889
 21
33.692384
  0
LINE
  8
6
  6
CONTINUOUS
 10
113.768889
 20
33.692384
 11
110.731389
 21
33.692384
  0
LINE
  8
6
  6
CONTINUOUS
 10
110.731389
 20
33.692384
 11
110.731389
 21
35.717384
  0
LINE
  8
6
  6
CONTINUOUS
 10
110.731389
 20
35.211134
 11
113.768889
 21
35.211134
  0
LINE
  8
3
  6
CONTINUOUS
 10
110.731389
 20
34.704884
 11
113.768889
 21
34.704884
  0
LINE
  8
3
  6
CONTINUOUS
 10
110.731389
 20
34.198634
 11
113.768889
 21
34.198634
  0
LINE
  8
6
  6
CONTINUOUS
 10
111.743889
 20
33.692384
 11
111.743889
 21
35.717384
  0
LINE
  8
6
  6
CONTINUOUS
 10
112.756389
 20
33.692384
 11
112.756389
 21
35.717384
  0
TEXT
  8
3
  6
CONTINUOUS
 10
110.831389
 20
35.360241
 40
0.222750
  1
%%c mm
  0
TEXT
  8
3
  6
CONTINUOUS
 10
112.074246
 20
35.360241
 40
0.222750
  1
R=
  0
TEXT
  8
3
  6
CONTINUOUS
 10
113.086747
 20
35.360241
 40
0.222750
  1
C=
  0
TEXT
  8
3
  6
CONTINUOUS
 10
110.831389
 20
34.853991
 40
0.222750
  1
16,0
  0
TEXT
  8
3
  6
CONTINUOUS
 10
110.831389
 20
34.347741
 40
0.222750
  1
20,0
  0
TEXT
  8
3
  6
CONTINUOUS
 10
110.831389
 20
33.841491
 40
0.222750
  1
25,0
  0
TEXT
  8
3
  6
CONTINUOUS
 10
112.074246
 20
34.853991
 40
0.222750
  1
 4
  0
TEXT
  8
3
  6
CONTINUOUS
 10
112.074246
 20
34.347741
 40
0.222750
  1
 8
  0
TEXT
  8
3
  6
CONTINUOUS
 10
112.074246
 20
33.841491
 40
0.222750
  1
10
  0
TEXT
  8
3
  6
CONTINUOUS
 10
113.086747
 20
34.853991
 40
0.222750
  1
 9
  0
TEXT
  8
3
  6
CONTINUOUS
 10
113.086747
 20
34.347741
 40
0.222750
  1
16
  0
TEXT
  8
3
  6
CONTINUOUS
 10
113.086747
 20
33.841491
 40
0.222750
  1
20
  0
TEXT
  8
3
  6
CONTINUOUS
 10
113.441538
 20
30.181458
 40
0.167063
  1
60
  0
TEXT
  8
3
  6
CONTINUOUS
 10
113.441538
 20
29.801771
 40
0.167063
  1
80
  0
TEXT
  8
3
  6
CONTINUOUS
 10
114.200916
 20
30.561146
 40
0.167063
  1
10
  0
TEXT
  8
3
  6
CONTINUOUS
 10
114.200916
 20
30.181458
 40
0.167063
  1
15
  0
TEXT
  8
3
  6
CONTINUOUS
 10
114.200916
 20
29.801771
 40
0.167063
  1
20
  0
TEXT
  8
3
  6
CONTINUOUS
 10
107.895371
 20
39.290011
 40
0.180000
  1
DEVERAO SER EXECUTADAS DE TOPO
  0
TEXT
  8
3
  6
CONTINUOUS
 10
107.895371
 20
38.834364
 40
0.180000
  1
(POR CALDEAMENTO OU COM ELETRODO)
  0
TEXT
  8
7
  6
CONTINUOUS
 10
108.552897
 20
36.093779
 40
0.228000
  1
RAIO DE CURVATURA
  0
TEXT
  8
3
  6
CONTINUOUS
 10
107.895371
 20
38.378717
 40
0.180000
  1
DE ACORDO COM O ITEM  9.5.4 DA NBR 6118
  0
TEXT
  8
3
  6
CONTINUOUS
 10
107.895371
 20
37.923069
 40
0.180000
  1
OBEDECIDO O DISPOSTO NO ITEM  8.3.9.
  0
LINE
  8
3
  6
CONTINUOUS
 10
112.434398
 20
29.689940
 11
114.712521
 21
29.689940
  0
TEXT
  8
3
  6
CONTINUOUS
 10
112.509397
 20
29.042396
 40
0.167000
  1
20
  0
LINE
  8
3
  6
CONTINUOUS
 10
112.434398
 20
30.829002
 11
114.712521
 21
30.829002
  0
TEXT
  8
3
  6
CONTINUOUS
 10
114.200916
 20
30.940833
 40
0.167063
  1
10
  0
TEXT
  8
3
  6
CONTINUOUS
 10
112.509397
 20
30.940833
 40
0.167000
  1
6.3
  0
TEXT
  8
3
  6
CONTINUOUS
 10
113.441538
 20
29.042396
 40
0.167000
  1
130
  0
TEXT
  8
3
  6
CONTINUOUS
 10
114.200916
 20
29.042396
 40
0.167000
  1
30
  0
LINE
  8
3
  6
CONTINUOUS
 10
112.434398
 20
29.310252
 11
114.712521
 21
29.310252
  0
TEXT
  8
3
  6
CONTINUOUS
 10
112.509397
 20
29.422083
 40
0.167000
  1
16
  0
TEXT
  8
3
  6
CONTINUOUS
 10
113.441538
 20
29.422083
 40
0.167000
  1
100
  0
TEXT
  8
3
  6
CONTINUOUS
 10
114.200916
 20
29.422083
 40
0.167000
  1
25
  0
TEXT
  8
3
  6
CONTINUOUS
 10
113.441538
 20
30.561146
 40
0.167000
  1
50
  0
TEXT
  8
3
  6
CONTINUOUS
 10
113.441538
 20
30.940833
 40
0.167000
  1
40
  0
LINE
  8
6
  6
CONTINUOUS
 10
106.300000
 20
57.448588
 11
106.300000
 21
56.645453
  0
LINE
  8
6
  6
CONTINUOUS
 10
117.300000
 20
57.448588
 11
117.300000
 21
56.645453
  0
LINE
  8
6
  6
CONTINUOUS
 10
106.300000
 20
56.645453
 11
117.300000
 21
56.645453
  0
LINE
  8
6
  6
CONTINUOUS
 10
109.250000
 20
56.645453
 11
109.250000
 21
57.448588
  0
LINE
  8
6
  6
CONTINUOUS
 10
110.883786
 20
56.645453
 11
110.883786
 21
57.448588
  0
LINE
  8
6
  6
CONTINUOUS
 10
112.757830
 20
56.645453
 11
112.757830
 21
57.448588
  0
LINE
  8
6
  6
CONTINUOUS
 10
114.755293
 20
56.645453
 11
114.755293
 21
57.448588
  0
TEXT
  8
7
  6
CONTINUOUS
 10
111.451868
 20
56.748682
 40
0.200000
  1
(mm)
  0
TEXT
  8
7
  6
CONTINUOUS
 10
109.333359
 20
57.552499
 40
0.350000
  1
TABELA DE FERROS
  0
LINE
  8
6
  6
CONTINUOUS
 10
106.300000
 20
57.448588
 11
117.300000
 21
57.448588
  0
TEXT
  8
7
  6
CONTINUOUS
 10
109.427866
 20
57.007083
 40
0.175000
  1
POSICAO
  0
TEXT
  8
7
  6
CONTINUOUS
 10
111.196076
 20
57.088827
 40
0.200000
  1
BITOLA
  0
TEXT
  8
7
  6
CONTINUOUS
 10
112.838474
 20
57.005622
 40
0.175000
  1
QUANTIDADE
  0
TEXT
  8
6
  6
CONTINUOUS
 10
114.949849
 20
57.132898
 40
0.190000
  1
COMPRIMENTO
  0
TEXT
  8
7
  6
CONTINUOUS
 10
114.954732
 20
56.751723
 40
0.190000
  1
UNITARIO
  0
TEXT
  8
7
  6
CONTINUOUS
 10
116.560009
 20
56.756566
 40
0.175000
  1
(cm)
  0
TEXT
  8
7
  6
CONTINUOUS
 10
116.560009
 20
56.756566
 40
0.175000
  1
(cm)
  0
LINE
  8
6
  6
CONTINUOUS
 10
106.300000
 20
56.645453
 11
117.300000
 21
56.645453
  0
LINE
  8
6
  6
CONTINUOUS
 10
117.300000
 20
56.207953
 11
109.250000
 21
56.207953
  0
LINE
  8
6
  6
CONTINUOUS
 10
106.300000
 20
56.207953
 11
106.300000
 21
56.645453
  0
LINE
  8
6
  6
CONTINUOUS
 10
117.300000
 20
56.207953
 11
117.300000
 21
56.645453
  0
LINE
  8
6
  6
CONTINUOUS
 10
106.300000
 20
56.645453
 11
117.300000
 21
56.645453
  0
LINE
  8
6
  6
CONTINUOUS
 10
109.250000
 20
56.207953
 11
109.250000
 21
55.857953
  0
LINE
  8
6
  6
CONTINUOUS
 10
110.883786
 20
56.207953
 11
110.883786
 21
55.857953
  0
LINE
  8
6
  6
CONTINUOUS
 10
112.757830
 20
56.207953
 11
112.757830
 21
55.857953
  0
LINE
  8
6
  6
CONTINUOUS
 10
114.755293
 20
56.207953
 11
114.755293
 21
55.857953
  0
LINE
  8
6
  6
CONTINUOUS
 10
106.300000
 20
55.857953
 11
106.300000
 21
56.207953
  0
LINE
  8
6
  6
CONTINUOUS
 10
117.300000
 20
55.857953
 11
117.300000
 21
56.207953
  0
TEXT
  8
6
  6
CONTINUOUS
 10
109.720053
 20
55.932953
 40
0.200000
  1
  1
  0
TEXT
  8
6
  6
CONTINUOUS
 10
113.452985
 20
55.938441
 40
0.200000
  1
  91
  0
TEXT
  8
6
  6
CONTINUOUS
 10
115.488898
 20
55.932579
 40
0.200000
  1
-CORR-
  0
TEXT
  8
6
  6
CONTINUOUS
 10
111.165712
 20
55.947994
 40
0.200000
  1
   12.5
  0
LINE
  8
6
  6
CONTINUOUS
 10
109.250000
 20
55.857953
 11
109.250000
 21
55.507953
  0
LINE
  8
6
  6
CONTINUOUS
 10
110.883786
 20
55.857953
 11
110.883786
 21
55.507953
  0
LINE
  8
6
  6
CONTINUOUS
 10
112.757830
 20
55.857953
 11
112.757830
 21
55.507953
  0
LINE
  8
6
  6
CONTINUOUS
 10
114.755293
 20
55.857953
 11
114.755293
 21
55.507953
  0
LINE
  8
6
  6
CONTINUOUS
 10
106.300000
 20
55.507953
 11
106.300000
 21
55.857953
  0
LINE
  8
6
  6
CONTINUOUS
 10
117.300000
 20
55.507953
 11
117.300000
 21
55.857953
  0
TEXT
  8
6
  6
CONTINUOUS
 10
109.720053
 20
55.582953
 40
0.200000
  1
  2
  0
TEXT
  8
6
  6
CONTINUOUS
 10
113.452985
 20
55.588441
 40
0.200000
  1
  91
  0
TEXT
  8
6
  6
CONTINUOUS
 10
115.488898
 20
55.582579
 40
0.200000
  1
-CORR-
  0
TEXT
  8
6
  6
CONTINUOUS
 10
111.165712
 20
55.597994
 40
0.200000
  1
   10  
  0
LINE
  8
6
  6
CONTINUOUS
 10
109.250000
 20
55.507953
 11
109.250000
 21
55.157953
  0
LINE
  8
6
  6
CONTINUOUS
 10
110.883786
 20
55.507953
 11
110.883786
 21
55.157953
  0
LINE
  8
6
  6
CONTINUOUS
 10
112.757830
 20
55.507953
 11
112.757830
 21
55.157953
  0
LINE
  8
6
  6
CONTINUOUS
 10
114.755293
 20
55.507953
 11
114.755293
 21
55.157953
  0
LINE
  8
6
  6
CONTINUOUS
 10
106.300000
 20
55.157953
 11
106.300000
 21
55.507953
  0
LINE
  8
6
  6
CONTINUOUS
 10
117.300000
 20
55.157953
 11
117.300000
 21
55.507953
  0
TEXT
  8
6
  6
CONTINUOUS
 10
109.720053
 20
55.232953
 40
0.200000
  1
  3
  0
TEXT
  8
6
  6
CONTINUOUS
 10
113.452985
 20
55.238441
 40
0.200000
  1
 104
  0
TEXT
  8
6
  6
CONTINUOUS
 10
115.488898
 20
55.232579
 40
0.200000
  1
   363
  0
TEXT
  8
6
  6
CONTINUOUS
 10
111.165712
 20
55.247995
 40
0.200000
  1
   10  
  0
LINE
  8
6
  6
CONTINUOUS
 10
109.250000
 20
55.157953
 11
109.250000
 21
54.807954
  0
LINE
  8
6
  6
CONTINUOUS
 10
110.883786
 20
55.157953
 11
110.883786
 21
54.807954
  0
LINE
  8
6
  6
CONTINUOUS
 10
112.757830
 20
55.157953
 11
112.757830
 21
54.807954
  0
LINE
  8
6
  6
CONTINUOUS
 10
114.755293
 20
55.157953
 11
114.755293
 21
54.807954
  0
LINE
  8
6
  6
CONTINUOUS
 10
106.300000
 20
54.807954
 11
106.300000
 21
55.157953
  0
LINE
  8
6
  6
CONTINUOUS
 10
117.300000
 20
54.807954
 11
117.300000
 21
55.157953
  0
TEXT
  8
6
  6
CONTINUOUS
 10
109.720053
 20
54.882953
 40
0.200000
  1
  4
  0
TEXT
  8
6
  6
CONTINUOUS
 10
113.452985
 20
54.888442
 40
0.200000
  1
  12
  0
TEXT
  8
6
  6
CONTINUOUS
 10
115.488898
 20
54.882579
 40
0.200000
  1
-CORR-
  0
TEXT
  8
6
  6
CONTINUOUS
 10
111.165712
 20
54.897995
 40
0.200000
  1
    6.3
  0
LINE
  8
6
  6
CONTINUOUS
 10
109.250000
 20
54.807954
 11
109.250000
 21
54.457954
  0
LINE
  8
6
  6
CONTINUOUS
 10
110.883786
 20
54.807954
 11
110.883786
 21
54.457954
  0
LINE
  8
6
  6
CONTINUOUS
 10
112.757830
 20
54.807954
 11
112.757830
 21
54.457954
  0
LINE
  8
6
  6
CONTINUOUS
 10
114.755293
 20
54.807954
 11
114.755293
 21
54.457954
  0
LINE
  8
6
  6
CONTINUOUS
 10
106.300000
 20
54.457954
 11
106.300000
 21
54.807954
  0
LINE
  8
6
  6
CONTINUOUS
 10
117.300000
 20
54.457954
 11
117.300000
 21
54.807954
  0
TEXT
  8
6
  6
CONTINUOUS
 10
109.720053
 20
54.532953
 40
0.200000
  1
  5
  0
TEXT
  8
6
  6
CONTINUOUS
 10
113.452985
 20
54.538442
 40
0.200000
  1
  55
  0
TEXT
  8
6
  6
CONTINUOUS
 10
115.488898
 20
54.532579
 40
0.200000
  1
-CORR-
  0
TEXT
  8
6
  6
CONTINUOUS
 10
111.165712
 20
54.547995
 40
0.200000
  1
   10  
  0
LINE
  8
6
  6
CONTINUOUS
 10
109.250000
 20
54.457954
 11
109.250000
 21
54.107954
  0
LINE
  8
6
  6
CONTINUOUS
 10
110.883786
 20
54.457954
 11
110.883786
 21
54.107954
  0
LINE
  8
6
  6
CONTINUOUS
 10
112.757830
 20
54.457954
 11
112.757830
 21
54.107954
  0
LINE
  8
6
  6
CONTINUOUS
 10
114.755293
 20
54.457954
 11
114.755293
 21
54.107954
  0
LINE
  8
6
  6
CONTINUOUS
 10
106.300000
 20
54.107954
 11
106.300000
 21
54.457954
  0
LINE
  8
6
  6
CONTINUOUS
 10
117.300000
 20
54.107954
 11
117.300000
 21
54.457954
  0
TEXT
  8
6
  6
CONTINUOUS
 10
109.720053
 20
54.182954
 40
0.200000
  1
  6
  0
TEXT
  8
6
  6
CONTINUOUS
 10
113.452985
 20
54.188442
 40
0.200000
  1
  19
  0
TEXT
  8
6
  6
CONTINUOUS
 10
115.488898
 20
54.182579
 40
0.200000
  1
-CORR-
  0
TEXT
  8
6
  6
CONTINUOUS
 10
111.165712
 20
54.197995
 40
0.200000
  1
   12.5
  0
LINE
  8
6
  6
CONTINUOUS
 10
109.250000
 20
54.107954
 11
109.250000
 21
53.757954
  0
LINE
  8
6
  6
CONTINUOUS
 10
110.883786
 20
54.107954
 11
110.883786
 21
53.757954
  0
LINE
  8
6
  6
CONTINUOUS
 10
112.757830
 20
54.107954
 11
112.757830
 21
53.757954
  0
LINE
  8
6
  6
CONTINUOUS
 10
114.755293
 20
54.107954
 11
114.755293
 21
53.757954
  0
LINE
  8
6
  6
CONTINUOUS
 10
106.300000
 20
53.757954
 11
106.300000
 21
54.107954
  0
LINE
  8
6
  6
CONTINUOUS
 10
117.300000
 20
53.757954
 11
117.300000
 21
54.107954
  0
TEXT
  8
6
  6
CONTINUOUS
 10
109.720053
 20
53.832954
 40
0.200000
  1
  7
  0
TEXT
  8
6
  6
CONTINUOUS
 10
113.452985
 20
53.838442
 40
0.200000
  1
 137
  0
TEXT
  8
6
  6
CONTINUOUS
 10
115.488898
 20
53.832580
 40
0.200000
  1
  1363
  0
TEXT
  8
6
  6
CONTINUOUS
 10
111.165712
 20
53.847995
 40
0.200000
  1
   25  
  0
LINE
  8
6
  6
CONTINUOUS
 10
109.250000
 20
53.757954
 11
109.250000
 21
53.407954
  0
LINE
  8
6
  6
CONTINUOUS
 10
110.883786
 20
53.757954
 11
110.883786
 21
53.407954
  0
LINE
  8
6
  6
CONTINUOUS
 10
112.757830
 20
53.757954
 11
112.757830
 21
53.407954
  0
LINE
  8
6
  6
CONTINUOUS
 10
114.755293
 20
53.757954
 11
114.755293
 21
53.407954
  0
LINE
  8
6
  6
CONTINUOUS
 10
106.300000
 20
53.407954
 11
106.300000
 21
53.757954
  0
LINE
  8
6
  6
CONTINUOUS
 10
117.300000
 20
53.407954
 11
117.300000
 21
53.757954
  0
TEXT
  8
6
  6
CONTINUOUS
 10
109.720053
 20
53.482954
 40
0.200000
  1
  8
  0
TEXT
  8
6
  6
CONTINUOUS
 10
113.452985
 20
53.488442
 40
0.200000
  1
 280
  0
TEXT
  8
6
  6
CONTINUOUS
 10
115.488898
 20
53.482580
 40
0.200000
  1
   260
  0
TEXT
  8
6
  6
CONTINUOUS
 10
111.165712
 20
53.497995
 40
0.200000
  1
    8  
  0
LINE
  8
6
  6
CONTINUOUS
 10
109.250000
 20
53.407954
 11
109.250000
 21
53.057954
  0
LINE
  8
6
  6
CONTINUOUS
 10
110.883786
 20
53.407954
 11
110.883786
 21
53.057954
  0
LINE
  8
6
  6
CONTINUOUS
 10
112.757830
 20
53.407954
 11
112.757830
 21
53.057954
  0
LINE
  8
6
  6
CONTINUOUS
 10
114.755293
 20
53.407954
 11
114.755293
 21
53.057954
  0
LINE
  8
6
  6
CONTINUOUS
 10
106.300000
 20
53.057954
 11
106.300000
 21
53.407954
  0
LINE
  8
6
  6
CONTINUOUS
 10
117.300000
 20
53.057954
 11
117.300000
 21
53.407954
  0
TEXT
  8
6
  6
CONTINUOUS
 10
109.720053
 20
53.132954
 40
0.200000
  1
  9
  0
TEXT
  8
6
  6
CONTINUOUS
 10
113.452985
 20
53.138442
 40
0.200000
  1
  20
  0
TEXT
  8
6
  6
CONTINUOUS
 10
115.488898
 20
53.132580
 40
0.200000
  1
-CORR-
  0
TEXT
  8
6
  6
CONTINUOUS
 10
111.165712
 20
53.147995
 40
0.200000
  1
   20  
  0
LINE
  8
6
  6
CONTINUOUS
 10
109.250000
 20
53.057954
 11
109.250000
 21
52.707954
  0
LINE
  8
6
  6
CONTINUOUS
 10
110.883786
 20
53.057954
 11
110.883786
 21
52.707954
  0
LINE
  8
6
  6
CONTINUOUS
 10
112.757830
 20
53.057954
 11
112.757830
 21
52.707954
  0
LINE
  8
6
  6
CONTINUOUS
 10
114.755293
 20
53.057954
 11
114.755293
 21
52.707954
  0
LINE
  8
6
  6
CONTINUOUS
 10
106.300000
 20
52.707954
 11
106.300000
 21
53.057954
  0
LINE
  8
6
  6
CONTINUOUS
 10
117.300000
 20
52.707954
 11
117.300000
 21
53.057954
  0
TEXT
  8
6
  6
CONTINUOUS
 10
109.720053
 20
52.782954
 40
0.200000
  1
 10
  0
TEXT
  8
6
  6
CONTINUOUS
 10
113.452985
 20
52.788442
 40
0.200000
  1
  56
  0
TEXT
  8
6
  6
CONTINUOUS
 10
115.488898
 20
52.782580
 40
0.200000
  1
   176
  0
TEXT
  8
6
  6
CONTINUOUS
 10
111.165712
 20
52.797995
 40
0.200000
  1
    6.3
  0
LINE
  8
6
  6
CONTINUOUS
 10
109.250000
 20
52.707954
 11
109.250000
 21
52.357954
  0
LINE
  8
6
  6
CONTINUOUS
 10
110.883786
 20
52.707954
 11
110.883786
 21
52.357954
  0
LINE
  8
6
  6
CONTINUOUS
 10
112.757830
 20
52.707954
 11
112.757830
 21
52.357954
  0
LINE
  8
6
  6
CONTINUOUS
 10
114.755293
 20
52.707954
 11
114.755293
 21
52.357954
  0
LINE
  8
6
  6
CONTINUOUS
 10
106.300000
 20
52.357954
 11
106.300000
 21
52.707954
  0
LINE
  8
6
  6
CONTINUOUS
 10
117.300000
 20
52.357954
 11
117.300000
 21
52.707954
  0
TEXT
  8
6
  6
CONTINUOUS
 10
109.720053
 20
52.432954
 40
0.200000
  1
 11
  0
TEXT
  8
6
  6
CONTINUOUS
 10
113.452985
 20
52.438442
 40
0.200000
  1
  84
  0
TEXT
  8
6
  6
CONTINUOUS
 10
115.488898
 20
52.432580
 40
0.200000
  1
   422
  0
TEXT
  8
6
  6
CONTINUOUS
 10
111.165712
 20
52.447995
 40
0.200000
  1
    8  
  0
LINE
  8
6
  6
CONTINUOUS
 10
109.250000
 20
52.357954
 11
109.250000
 21
52.007954
  0
LINE
  8
6
  6
CONTINUOUS
 10
110.883786
 20
52.357954
 11
110.883786
 21
52.007954
  0
LINE
  8
6
  6
CONTINUOUS
 10
112.757830
 20
52.357954
 11
112.757830
 21
52.007954
  0
LINE
  8
6
  6
CONTINUOUS
 10
114.755293
 20
52.357954
 11
114.755293
 21
52.007954
  0
LINE
  8
6
  6
CONTINUOUS
 10
106.300000
 20
52.007954
 11
106.300000
 21
52.357954
  0
LINE
  8
6
  6
CONTINUOUS
 10
117.300000
 20
52.007954
 11
117.300000
 21
52.357954
  0
TEXT
  8
6
  6
CONTINUOUS
 10
109.720053
 20
52.082954
 40
0.200000
  1
 12
  0
TEXT
  8
6
  6
CONTINUOUS
 10
113.452985
 20
52.088442
 40
0.200000
  1
  84
  0
TEXT
  8
6
  6
CONTINUOUS
 10
115.488898
 20
52.082580
 40
0.200000
  1
   147
  0
TEXT
  8
6
  6
CONTINUOUS
 10
111.165712
 20
52.097995
 40
0.200000
  1
    6.3
  0
LINE
  8
6
  6
CONTINUOUS
 10
109.250000
 20
52.007954
 11
109.250000
 21
51.657954
  0
LINE
  8
6
  6
CONTINUOUS
 10
110.883786
 20
52.007954
 11
110.883786
 21
51.657954
  0
LINE
  8
6
  6
CONTINUOUS
 10
112.757830
 20
52.007954
 11
112.757830
 21
51.657954
  0
LINE
  8
6
  6
CONTINUOUS
 10
114.755293
 20
52.007954
 11
114.755293
 21
51.657954
  0
LINE
  8
6
  6
CONTINUOUS
 10
106.300000
 20
51.657954
 11
106.300000
 21
52.007954
  0
LINE
  8
6
  6
CONTINUOUS
 10
117.300000
 20
51.657954
 11
117.300000
 21
52.007954
  0
TEXT
  8
6
  6
CONTINUOUS
 10
109.720053
 20
51.732954
 40
0.200000
  1
 13
  0
TEXT
  8
6
  6
CONTINUOUS
 10
113.452985
 20
51.738442
 40
0.200000
  1
  84
  0
TEXT
  8
6
  6
CONTINUOUS
 10
115.488898
 20
51.732580
 40
0.200000
  1
   150
  0
TEXT
  8
6
  6
CONTINUOUS
 10
111.165712
 20
51.747996
 40
0.200000
  1
    6.3
  0
LINE
  8
6
  6
CONTINUOUS
 10
109.250000
 20
51.657954
 11
109.250000
 21
51.307954
  0
LINE
  8
6
  6
CONTINUOUS
 10
110.883786
 20
51.657954
 11
110.883786
 21
51.307954
  0
LINE
  8
6
  6
CONTINUOUS
 10
112.757830
 20
51.657954
 11
112.757830
 21
51.307954
  0
LINE
  8
6
  6
CONTINUOUS
 10
114.755293
 20
51.657954
 11
114.755293
 21
51.307954
  0
LINE
  8
6
  6
CONTINUOUS
 10
106.300000
 20
51.307954
 11
106.300000
 21
51.657954
  0
LINE
  8
6
  6
CONTINUOUS
 10
117.300000
 20
51.307954
 11
117.300000
 21
51.657954
  0
TEXT
  8
6
  6
CONTINUOUS
 10
109.720053
 20
51.382954
 40
0.200000
  1
 14
  0
TEXT
  8
6
  6
CONTINUOUS
 10
113.452985
 20
51.388443
 40
0.200000
  1
  84
  0
TEXT
  8
6
  6
CONTINUOUS
 10
115.488898
 20
51.382580
 40
0.200000
  1
   176
  0
TEXT
  8
6
  6
CONTINUOUS
 10
111.165712
 20
51.397996
 40
0.200000
  1
    6.3
  0
LINE
  8
6
  6
CONTINUOUS
 10
109.250000
 20
51.307954
 11
109.250000
 21
50.957955
  0
LINE
  8
6
  6
CONTINUOUS
 10
110.883786
 20
51.307954
 11
110.883786
 21
50.957955
  0
LINE
  8
6
  6
CONTINUOUS
 10
112.757830
 20
51.307954
 11
112.757830
 21
50.957955
  0
LINE
  8
6
  6
CONTINUOUS
 10
114.755293
 20
51.307954
 11
114.755293
 21
50.957955
  0
LINE
  8
6
  6
CONTINUOUS
 10
106.300000
 20
50.957955
 11
106.300000
 21
51.307954
  0
LINE
  8
6
  6
CONTINUOUS
 10
117.300000
 20
50.957955
 11
117.300000
 21
51.307954
  0
LINE
  8
6
  6
CONTINUOUS
 10
106.300000
 20
50.957955
 11
117.300000
 21
50.957955
  0
LINE
  8
6
  6
CONTINUOUS
 10
106.300000
 20
49.957955
 11
106.300000
 21
48.645455
  0
LINE
  8
6
  6
CONTINUOUS
 10
117.300000
 20
49.957955
 11
117.300000
 21
48.645455
  0
LINE
  8
6
  6
CONTINUOUS
 10
106.300000
 20
49.957955
 11
117.300000
 21
49.957955
  0
LINE
  8
6
  6
CONTINUOUS
 10
106.300000
 20
48.645455
 11
117.300000
 21
48.645455
  0
TEXT
  8
6
  6
CONTINUOUS
 10
111.608841
 20
49.180306
 40
0.250000
  1
COMPR
  0
TEXT
  8
6
  6
CONTINUOUS
 10
115.237840
 20
49.180306
 40
0.250000
  1
PESO
  0
LINE
  8
6
  6
CONTINUOUS
 10
106.300000
 20
49.520455
 11
117.300000
 21
49.520455
  0
LINE
  8
6
  6
CONTINUOUS
 10
110.630000
 20
48.645455
 11
110.630000
 21
49.520455
  0
TEXT
  8
6
  6
CONTINUOUS
 10
109.643861
 20
48.749205
 40
0.200000
  1
(mm)
  0
TEXT
  8
6
  6
CONTINUOUS
 10
111.786146
 20
48.749205
 40
0.200000
  1
(m)
  0
TEXT
  8
6
  6
CONTINUOUS
 10
115.306442
 20
48.749205
 40
0.200000
  1
(kg)
  0
LINE
  8
6
  6
CONTINUOUS
 10
109.020000
 20
48.645455
 11
109.020000
 21
49.520455
  0
TEXT
  8
6
  6
CONTINUOUS
 10
109.630000
 20
49.176705
 40
0.250000
  1
BIT
  0
LINE
  8
6
  6
CONTINUOUS
 10
113.965000
 20
48.645455
 11
113.965000
 21
49.520455
  0
TEXT
  8
6
  6
CONTINUOUS
 10
109.480497
 20
49.614205
 40
0.250000
  1
RESUMO AÇO CA  50-60
  0
TEXT
  8
6
  6
CONTINUOUS
 10
108.019580
 20
49.176705
 40
0.250000
  1
AÇO
  0
LINE
  8
6
  6
CONTINUOUS
 10
113.965000
 20
48.645455
 11
113.965000
 21
48.295454
  0
LINE
  8
6
  6
CONTINUOUS
 10
110.630000
 20
48.295454
 11
110.630000
 21
48.645455
  0
LINE
  8
6
  6
CONTINUOUS
 10
106.300000
 20
48.295454
 11
106.300000
 21
48.645455
  0
LINE
  8
6
  6
CONTINUOUS
 10
117.300000
 20
48.295454
 11
117.300000
 21
48.645455
  0
LINE
  8
6
  6
CONTINUOUS
 10
109.020000
 20
48.645455
 11
109.020000
 21
48.295455
  0
TEXT
  8
6
  6
CONTINUOUS
 10
110.945479
 20
48.371028
 40
0.200000
  1
     651
  0
TEXT
  8
6
  6
CONTINUOUS
 10
114.716535
 20
48.370455
 40
0.200000
  1
    163
  0
TEXT
  8
6
  6
CONTINUOUS
 10
109.129743
 20
48.380466
 40
0.200000
  1
    6.3
  0
TEXT
  8
6
  6
CONTINUOUS
 10
107.359661
 20
48.370454
 40
0.200000
  1
     50A
  0
LINE
  8
6
  6
CONTINUOUS
 10
113.965000
 20
48.295454
 11
113.965000
 21
47.945454
  0
LINE
  8
6
  6
CONTINUOUS
 10
110.630000
 20
47.945454
 11
110.630000
 21
48.295454
  0
LINE
  8
6
  6
CONTINUOUS
 10
106.300000
 20
47.945454
 11
106.300000
 21
48.295454
  0
LINE
  8
6
  6
CONTINUOUS
 10
117.300000
 20
47.945454
 11
117.300000
 21
48.295454
  0
LINE
  8
6
  6
CONTINUOUS
 10
109.020000
 20
48.295454
 11
109.020000
 21
47.945454
  0
TEXT
  8
6
  6
CONTINUOUS
 10
110.945479
 20
48.021028
 40
0.200000
  1
    1082
  0
TEXT
  8
6
  6
CONTINUOUS
 10
114.716535
 20
48.020455
 40
0.200000
  1
    433
  0
TEXT
  8
6
  6
CONTINUOUS
 10
109.129743
 20
48.030466
 40
0.200000
  1
    8  
  0
TEXT
  8
6
  6
CONTINUOUS
 10
107.359661
 20
48.020454
 40
0.200000
  1
     50A
  0
LINE
  8
6
  6
CONTINUOUS
 10
113.965000
 20
47.945454
 11
113.965000
 21
47.595453
  0
LINE
  8
6
  6
CONTINUOUS
 10
110.630000
 20
47.595453
 11
110.630000
 21
47.945454
  0
LINE
  8
6
  6
CONTINUOUS
 10
106.300000
 20
47.595453
 11
106.300000
 21
47.945454
  0
LINE
  8
6
  6
CONTINUOUS
 10
117.300000
 20
47.595453
 11
117.300000
 21
47.945454
  0
LINE
  8
6
  6
CONTINUOUS
 10
109.020000
 20
47.945454
 11
109.020000
 21
47.595454
  0
TEXT
  8
6
  6
CONTINUOUS
 10
110.945479
 20
47.671027
 40
0.200000
  1
    2285
  0
TEXT
  8
6
  6
CONTINUOUS
 10
114.716535
 20
47.670454
 40
0.200000
  1
   1439
  0
TEXT
  8
6
  6
CONTINUOUS
 10
109.129743
 20
47.680466
 40
0.200000
  1
   10  
  0
TEXT
  8
6
  6
CONTINUOUS
 10
107.359661
 20
47.670454
 40
0.200000
  1
     50A
  0
LINE
  8
6
  6
CONTINUOUS
 10
113.965000
 20
47.595453
 11
113.965000
 21
47.245453
  0
LINE
  8
6
  6
CONTINUOUS
 10
110.630000
 20
47.245453
 11
110.630000
 21
47.595453
  0
LINE
  8
6
  6
CONTINUOUS
 10
106.300000
 20
47.245453
 11
106.300000
 21
47.595453
  0
LINE
  8
6
  6
CONTINUOUS
 10
117.300000
 20
47.245453
 11
117.300000
 21
47.595453
  0
LINE
  8
6
  6
CONTINUOUS
 10
109.020000
 20
47.595453
 11
109.020000
 21
47.245454
  0
TEXT
  8
6
  6
CONTINUOUS
 10
110.945479
 20
47.321027
 40
0.200000
  1
    1593
  0
TEXT
  8
6
  6
CONTINUOUS
 10
114.716535
 20
47.320454
 40
0.200000
  1
   1593
  0
TEXT
  8
6
  6
CONTINUOUS
 10
109.129743
 20
47.330465
 40
0.200000
  1
   12.5
  0
TEXT
  8
6
  6
CONTINUOUS
 10
107.359661
 20
47.320453
 40
0.200000
  1
     50A
  0
LINE
  8
6
  6
CONTINUOUS
 10
113.965000
 20
47.245453
 11
113.965000
 21
46.895453
  0
LINE
  8
6
  6
CONTINUOUS
 10
110.630000
 20
46.895453
 11
110.630000
 21
47.245453
  0
LINE
  8
6
  6
CONTINUOUS
 10
106.300000
 20
46.895453
 11
106.300000
 21
47.245453
  0
LINE
  8
6
  6
CONTINUOUS
 10
117.300000
 20
46.895453
 11
117.300000
 21
47.245453
  0
LINE
  8
6
  6
CONTINUOUS
 10
109.020000
 20
47.245453
 11
109.020000
 21
46.895453
  0
TEXT
  8
6
  6
CONTINUOUS
 10
110.945479
 20
46.971026
 40
0.200000
  1
     320
  0
TEXT
  8
6
  6
CONTINUOUS
 10
114.716535
 20
46.970453
 40
0.200000
  1
    800
  0
TEXT
  8
6
  6
CONTINUOUS
 10
109.129743
 20
46.980465
 40
0.200000
  1
   20  
  0
TEXT
  8
6
  6
CONTINUOUS
 10
107.359661
 20
46.970453
 40
0.200000
  1
     50A
  0
LINE
  8
6
  6
CONTINUOUS
 10
113.965000
 20
46.895453
 11
113.965000
 21
46.545452
  0
LINE
  8
6
  6
CONTINUOUS
 10
110.630000
 20
46.545452
 11
110.630000
 21
46.895453
  0
LINE
  8
6
  6
CONTINUOUS
 10
106.300000
 20
46.545452
 11
106.300000
 21
46.895453
  0
LINE
  8
6
  6
CONTINUOUS
 10
117.300000
 20
46.545452
 11
117.300000
 21
46.895453
  0
LINE
  8
6
  6
CONTINUOUS
 10
109.020000
 20
46.895453
 11
109.020000
 21
46.545453
  0
TEXT
  8
6
  6
CONTINUOUS
 10
110.945479
 20
46.621026
 40
0.200000
  1
    1867
  0
TEXT
  8
6
  6
CONTINUOUS
 10
114.716535
 20
46.620453
 40
0.200000
  1
   7469
  0
TEXT
  8
6
  6
CONTINUOUS
 10
109.129743
 20
46.630465
 40
0.200000
  1
   25  
  0
TEXT
  8
6
  6
CONTINUOUS
 10
107.359661
 20
46.620453
 40
0.200000
  1
     50A
  0
LINE
  8
6
  6
CONTINUOUS
 10
106.300000
 20
46.545452
 11
117.300000
 21
46.545452
  0
LINE
  8
6
  6
CONTINUOUS
 10
106.300000
 20
46.107952
 11
106.300000
 21
46.545452
  0
LINE
  8
6
  6
CONTINUOUS
 10
117.300000
 20
46.107952
 11
117.300000
 21
46.545452
  0
LINE
  8
6
  6
CONTINUOUS
 10
106.300000
 20
46.545452
 11
117.300000
 21
46.545452
  0
LINE
  8
6
  6
CONTINUOUS
 10
117.300000
 20
46.107952
 11
106.300000
 21
46.107952
  0
TEXT
  8
6
  6
CONTINUOUS
 10
106.592829
 20
46.201702
 40
0.250000
  1
Peso Total        50A =
  0
TEXT
  8
6
  6
CONTINUOUS
 10
113.957004
 20
46.201702
 40
0.250000
  1
  11897 kg
  0
LINE
  8
6
  6
CONTINUOUS
 10
106.300000
 20
46.107952
 11
117.300000
 21
46.107952
  0
LINE
  8
6
  6
CONTINUOUS
 10
0.000002
 20
0.000000
 11
0.000002
 21
0.000000
  0
LINE
  8
6
  6
CONTINUOUS
 10
-0.000002
 20
0.000000
 11
118.799998
 21
0.000000
  0
LINE
  8
6
  6
CONTINUOUS
 10
118.799998
 20
0.000000
 11
118.799998
 21
54.599995
  0
LINE
  8
6
  6
CONTINUOUS
 10
118.799998
 20
59.400000
 11
-0.000002
 21
59.400000
  0
LINE
  8
6
  6
CONTINUOUS
 10
-0.000002
 20
54.599995
 11
-0.000002
 21
0.000000
  0
LINE
  8
6
  6
CONTINUOUS
 10
0.000002
 20
0.000000
 11
0.000002
 21
0.000000
  0
LINE
  8
6
  6
CONTINUOUS
 10
-0.000006
 20
-0.000001
 11
-0.000006
 21
-0.000001
  0
LINE
  8
6
  6
CONTINUOUS
 10
-0.000006
 20
-0.000001
 11
-0.000006
 21
-0.000001
  0
LINE
  8
6
  6
CONTINUOUS
 10
-0.000006
 20
-0.000001
 11
-0.000006
 21
-0.000001
  0
LINE
  8
6
  6
CONTINUOUS
 10
-0.000006
 20
30.000002
 11
2.499994
 21
30.000002
  0
LINE
  8
6
  6
CONTINUOUS
 10
-0.000006
 20
15.000000
 11
2.496278
 21
15.000000
  0
LINE
  8
6
  6
CONTINUOUS
 10
-0.000006
 20
28.500002
 11
2.499994
 21
30.000002
  0
LINE
  8
6
  6
CONTINUOUS
 10
-0.000006
 20
1.499999
 11
2.499994
 21
-0.000001
  0
LINE
  8
6
  6
CONTINUOUS
 10
100.299991
 20
58.410048
 11
100.299991
 21
59.400000
  0
LINE
  8
6
  6
CONTINUOUS
 10
81.799991
 20
58.410033
 11
81.799991
 21
59.400000
  0
LINE
  8
6
  6
CONTINUOUS
 10
63.299991
 20
58.410017
 11
63.299991
 21
59.400000
  0
LINE
  8
6
  6
CONTINUOUS
 10
44.799991
 20
58.410010
 11
44.799991
 21
59.400000
  0
LINE
  8
6
  6
CONTINUOUS
 10
81.799991
 20
0.000000
 11
81.799991
 21
0.995346
  0
LINE
  8
6
  6
CONTINUOUS
 10
63.299991
 20
0.000000
 11
63.299991
 21
1.000000
  0
LINE
  8
6
  6
CONTINUOUS
 10
44.799991
 20
0.000000
 11
44.799991
 21
1.001063
  0
LINE
  8
6
  6
CONTINUOUS
 10
0.000002
 20
0.000000
 11
0.000002
 21
0.000000
  0
LINE
  8
6
  6
CONTINUOUS
 10
-0.000006
 20
-0.000001
 11
-0.000006
 21
-0.000001
  0
LINE
  8
6
  6
CONTINUOUS
 10
-0.000006
 20
-0.000001
 11
-0.000006
 21
-0.000001
  0
LINE
  8
6
  6
CONTINUOUS
 10
-0.000002
 20
54.599995
 11
-0.000002
 21
59.400000
  0
LINE
  8
6
  6
CONTINUOUS
 10
118.799998
 20
54.599995
 11
118.799998
 21
59.400000
  0
LINE
  8
6
  6
CONTINUOUS
 10
100.299998
 20
0.000000
 11
100.299998
 21
0.989998
  0
LINE
  8
6
  6
CONTINUOUS
 10
117.789592
 20
30.000002
 11
118.799998
 21
30.000002
  0
LINE
  8
6
  6
CONTINUOUS
 10
21.000000
 20
58.408949
 11
21.000000
 21
59.398940
  0
LINE
  8
6
  6
CONTINUOUS
 10
21.000000
 20
-0.001062
 11
21.000000
 21
1.000000
  0
POLYLINE
  8
8
  6
CONTINUOUS
 66
     1
  0
VERTEX
  8
8
  6
CONTINUOUS
 10
2.499998
 20
58.400000
  0
VERTEX
  8
8
  6
CONTINUOUS
 10
117.799998
 20
58.400000
  0
VERTEX
  8
8
  6
CONTINUOUS
 10
117.799998
 20
1.000000
  0
VERTEX
  8
8
  6
CONTINUOUS
 10
2.499998
 20
1.000000
  0
VERTEX
  8
8
  6
CONTINUOUS
 10
2.499998
 20
58.400000
  0
SEQEND
  8
8
  6
CONTINUOUS
  0
LINE
  8
6
  6
CONTINUOUS
 10
32.899995
 20
58.410010
 11
32.899995
 21
59.400000
  0
LINE
  8
6
  6
CONTINUOUS
 10
32.899995
 20
0.000000
 11
32.899995
 21
1.001063
  0
LINE
  8
6
  6
CONTINUOUS
 10
2.499998
 20
8.750000
 11
81.799998
 21
8.750000
  0
LINE
  8
6
  6
CONTINUOUS
 10
81.799998
 20
1.000000
 11
81.799998
 21
8.750000
  0
LINE
  8
6
  6
CONTINUOUS
 10
99.799998
 20
1.000000
 11
99.799998
 21
8.750000
  0
LINE
  8
6
  6
CONTINUOUS
 10
100.299998
 20
1.750000
 11
117.799998
 21
1.750000
  0
LINE
  8
6
  6
CONTINUOUS
 10
113.299998
 20
3.250000
 11
113.299998
 21
5.750000
  0
LINE
  8
6
  6
CONTINUOUS
 10
113.424998
 20
1.000000
 11
113.424998
 21
1.750000
  0
LINE
  8
6
  6
CONTINUOUS
 10
109.049998
 20
1.000000
 11
109.049998
 21
3.250000
  0
LINE
  8
6
  6
CONTINUOUS
 10
104.674998
 20
1.000000
 11
104.674998
 21
1.750000
  0
TEXT
  8
6
  6
CONTINUOUS
 10
100.499998
 20
1.500000
 40
0.150000
  1
DATA
  0
TEXT
  8
6
  6
CONTINUOUS
 10
104.824998
 20
1.500000
 40
0.150000
  1
ESCALA
  0
TEXT
  8
6
  6
CONTINUOUS
 10
109.199998
 20
1.500000
 40
0.150000
  1
DESENHO
  0
TEXT
  8
6
  6
CONTINUOUS
 10
113.574998
 20
1.500000
 40
0.150000
  1
ARQUIVO
  0
TEXT
  8
6
  6
CONTINUOUS
 10
109.199998
 20
2.975000
 40
0.150000
  1
RESPONSÁVEL TÉCNICO
  0
TEXT
  8
6
  6
CONTINUOUS
 10
113.449998
 20
5.475000
 40
0.150000
  1
PRANCHA Nº
  0
TEXT
  8
6
  6
CONTINUOUS
 10
100.499998
 20
5.475000
 40
0.150000
  1
REFERÊNCIA
  0
TEXT
  8
6
  6
CONTINUOUS
 10
100.499998
 20
6.475000
 40
0.150000
  1
FINALIDADE
  0
TEXT
  8
6
  6
CONTINUOUS
 10
100.499998
 20
2.975000
 40
0.150000
  1
EMPRESA RESPONSÁVEL
  0
TEXT
  8
6
  6
CONTINUOUS
 10
100.499998
 20
0.700000
 40
0.150000
  1
DIREITOS AUTORAIS RESERVADOS QUALQUER MODIFICAÇÃO DEVERÁ TER AUTORIZAÇÃO DO IPPUC
  0
TEXT
  8
6
  6
CONTINUOUS
 10
101.099998
 20
8.090000
 40
0.320000
  1
MUNICÍPIO DE CURITIBA
  0
TEXT
  8
6
  6
CONTINUOUS
 10
101.099998
 20
7.075000
 40
0.350000
  1
INSTITUTO DE PESQUISA E PLANEJAMENTO URBANO DE CURITIBA
  0
LINE
  8
6
  6
CONTINUOUS
 10
81.799998
 20
5.725000
 11
99.799998
 21
5.725000
  0
LINE
  8
6
  6
CONTINUOUS
 10
81.799998
 20
4.375000
 11
99.799998
 21
4.375000
  0
LINE
  8
6
  6
CONTINUOUS
 10
81.799998
 20
3.025000
 11
99.799998
 21
3.025000
  0
LINE
  8
6
  6
CONTINUOUS
 10
81.799998
 20
2.012500
 11
87.799998
 21
2.012500
  0
LINE
  8
6
  6
CONTINUOUS
 10
87.799998
 20
1.000000
 11
87.799998
 21
8.750000
  0
LINE
  8
6
  6
CONTINUOUS
 10
87.799998
 20
6.400000
 11
99.799998
 21
6.400000
  0
LINE
  8
6
  6
CONTINUOUS
 10
87.799998
 20
5.050000
 11
99.799998
 21
5.050000
  0
LINE
  8
6
  6
CONTINUOUS
 10
87.799998
 20
3.700000
 11
99.799998
 21
3.700000
  0
LINE
  8
6
  6
CONTINUOUS
 10
97.799998
 20
2.350000
 11
97.799998
 21
7.075000
  0
LINE
  8
6
  6
CONTINUOUS
 10
95.799998
 20
1.000000
 11
95.799998
 21
2.350000
  0
LINE
  8
6
  6
CONTINUOUS
 10
91.799998
 20
1.000000
 11
91.799998
 21
2.350000
  0
TEXT
  8
6
  6
CONTINUOUS
 10
81.999998
 20
8.475000
 40
0.150000
  1
PREFEITO MUNICIPAL
  0
TEXT
  8
6
  6
CONTINUOUS
 10
81.999998
 20
6.800000
 40
0.150000
  1
PRESIDENTE IPPUC
  0
TEXT
  8
6
  6
CONTINUOUS
 10
81.999998
 20
5.475000
 40
0.150000
  1
SUPERVISÃO DE PLANEJAMENTO
  0
TEXT
  8
6
  6
CONTINUOUS
 10
81.999998
 20
4.125000
 40
0.150000
  1
COORDENAÇÃO DE MOBILIDADE E TRANSPORTE
  0
TEXT
  8
6
  6
CONTINUOUS
 10
81.999998
 20
2.775000
 40
0.150000
  1
SETOR DE PROJETOS VIÁRIOS
  0
TEXT
  8
6
  6
CONTINUOUS
 10
81.999998
 20
1.762500
 40
0.150000
  1
RESPONSÁVEL PROJETO IPPUC
  0
TEXT
  8
6
  6
CONTINUOUS
 10
87.949998
 20
2.050000
 40
0.180000
  1
CONFERIDO
  0
TEXT
  8
6
  6
CONTINUOUS
 10
91.949998
 20
2.050000
 40
0.180000
  1
APROVADO
  0
TEXT
  8
6
  6
CONTINUOUS
 10
95.949998
 20
2.050000
 40
0.180000
  1
VISTO
  0
TEXT
  8
6
  6
CONTINUOUS
 10
87.999998
 20
5.987500
 40
0.150000
  1
01
  0
TEXT
  8
6
  6
CONTINUOUS
 10
87.999998
 20
5.312500
 40
0.150000
  1
02
  0
TEXT
  8
6
  6
CONTINUOUS
 10
87.999998
 20
4.637500
 40
0.150000
  1
03
  0
TEXT
  8
6
  6
CONTINUOUS
 10
87.999998
 20
3.962500
 40
0.150000
  1
04
  0
TEXT
  8
6
  6
CONTINUOUS
 10
87.999998
 20
3.287500
 40
0.150000
  1
05
  0
TEXT
  8
6
  6
CONTINUOUS
 10
87.999998
 20
2.612500
 40
0.150000
  1
06
  0
TEXT
  8
6
  6
CONTINUOUS
 10
87.999998
 20
6.637500
 40
0.200000
  1
Nº
  0
TEXT
  8
6
  6
CONTINUOUS
 10
90.849998
 20
6.637500
 40
0.200000
  1
DISCRIMINAÇÃO DAS REVISÕES
  0
TEXT
  8
6
  6
CONTINUOUS
 10
98.419998
 20
6.637500
 40
0.200000
  1
DATA
  0
TEXT
  8
6
  6
CONTINUOUS
 10
81.999998
 20
1.200000
 40
0.250000
  1
MARCIO A. DE T. TEIXEIRA
  0
TEXT
  8
6
  6
CONTINUOUS
 10
81.999998
 20
7.425000
 40
0.300000
  1
LUCIANO DUCCI
  0
TEXT
  8
6
  6
CONTINUOUS
 10
81.999998
 20
2.212500
 40
0.250000
  1
MARCIO A. DE T. TEIXEIRA
  0
TEXT
  8
6
  6
CONTINUOUS
 10
81.999998
 20
3.225000
 40
0.250000
  1
MARIA MIRANDA
  0
TEXT
  8
6
  6
CONTINUOUS
 10
81.999998
 20
4.575000
 40
0.250000
  1
RICARDO BINDO
  0
TEXT
  8
6
  6
CONTINUOUS
 10
81.999998
 20
5.925000
 40
0.250000
  1
CLÉVER U.T. DE ALMEIDA
  0
TEXT
  8
6
  6
CONTINUOUS
 10
87.999998
 20
7.528500
 40
0.768000
  1
IPPUC
  0
TEXT
  8
6
  6
CONTINUOUS
 10
91.499998
 20
7.528500
 40
0.275000
  1
SETOR DE PROJETOS VIÁRIOS
  0
LINE
  8
6
  6
CONTINUOUS
 10
109.049998
 20
2.500000
 11
117.799998
 21
2.500000
  0
TEXT
  8
6
  6
CONTINUOUS
 10
109.199998
 20
2.250000
 40
0.150000
  1
CO-AUTOR
  0
LINE
  8
6
  6
CONTINUOUS
 10
100.299998
 20
8.750000
 11
117.799998
 21
8.750000
  0
LINE
  8
6
  6
CONTINUOUS
 10
100.299998
 20
7.750000
 11
117.799998
 21
7.750000
  0
LINE
  8
6
  6
CONTINUOUS
 10
100.299998
 20
6.750000
 11
117.799998
 21
6.750000
  0
LINE
  8
6
  6
CONTINUOUS
 10
100.299998
 20
5.750000
 11
117.799998
 21
5.750000
  0
LINE
  8
6
  6
CONTINUOUS
 10
100.299998
 20
3.250000
 11
117.799998
 21
3.250000
  0
LINE
  8
6
  6
CONTINUOUS
 10
87.799998
 20
2.350000
 11
99.799998
 21
2.350000
  0
LINE
  8
6
  6
CONTINUOUS
 10
81.799998
 20
7.075000
 11
99.799998
 21
7.075000
  0
LINE
  8
6
  6
CONTINUOUS
 10
81.799998
 20
8.750000
 11
99.799998
 21
8.750000
  0
TEXT
  8
6
  6
CONTINUOUS
 10
102.673864
 20
2.386636
 40
0.133184
  1
215.jpg
  0
POLYLINE
  8
6
  6
CONTINUOUS
 66
     1
  0
VERTEX
  8
6
  6
CONTINUOUS
 10
102.175151
 20
1.853899
  0
VERTEX
  8
6
  6
CONTINUOUS
 10
110.154569
 20
1.853899
  0
VERTEX
  8
6
  6
CONTINUOUS
 10
110.154569
 20
2.919373
  0
VERTEX
  8
6
  6
CONTINUOUS
 10
102.175151
 20
2.919373
  0
VERTEX
  8
6
  6
CONTINUOUS
 10
102.175151
 20
1.853899
  0
SEQEND
  8
6
  6
CONTINUOUS
  0
TEXT
  8
6
  6
CONTINUOUS
 10
109.199998
 20
1.150000
 40
0.200000
  1
MAURO
  0
TEXT
  8
6
  6
CONTINUOUS
 10
101.143533
 20
4.566548
 40
0.320000
  1
PROJETO DE O.A.E.
  0
TEXT
  8
6
  6
CONTINUOUS
 10
109.199998
 20
1.900000
 40
0.200000
  1
SERGIO CUNHA - CREA 3882/D-PR
  0
TEXT
  8
6
  6
CONTINUOUS
 10
100.640349
 20
17.895151
 40
0.909725
  1
CARIMBO - IPPUC.jpg
  0
POLYLINE
  8
6
  6
CONTINUOUS
 66
     1
  0
VERTEX
  8
6
  6
CONTINUOUS
 10
100.202849
 20
8.797903
  0
VERTEX
  8
6
  6
CONTINUOUS
 10
117.702849
 20
8.797903
  0
VERTEX
  8
6
  6
CONTINUOUS
 10
117.702849
 20
26.992398
  0
VERTEX
  8
6
  6
CONTINUOUS
 10
100.202849
 20
26.992398
  0
VERTEX
  8
6
  6
CONTINUOUS
 10
100.202849
 20
8.797903
  0
SEQEND
  8
6
  6
CONTINUOUS
  0
TEXT
  8
6
  6
CONTINUOUS
 10
104.824998
 20
1.150000
 40
0.200000
  1
INDICADAS
  0
LINE
  8
6
  6
CONTINUOUS
 10
63.299980
 20
0.989998
 11
63.299980
 21
8.739998
  0
TEXT
  8
6
  6
CONTINUOUS
 10
101.143533
 20
3.953334
 40
0.320000
  1
PISTA 2 -ARMADURA DAS LAJES
  0
TEXT
  8
6
  6
CONTINUOUS
 10
64.397652
 20
7.930330
 40
0.400000
  1
NOTAS:
  0
TEXT
  8
6
  6
CONTINUOUS
 10
64.509948
 20
7.015157
 40
0.220000
  1
01. VERIFICAR AS MEDIDAS NA OBRA.
  0
TEXT
  8
6
  6
CONTINUOUS
 10
64.509948
 20
6.272238
 40
0.220000
  1
02. CONCRETO ADOTADO : C20 - CONTENÇÕES ; FATOR A/C < 0,65
  0
TEXT
  8
6
  6
CONTINUOUS
 10
68.263067
 20
5.763071
 40
0.220000
  1
C25 - ESTACAS          ; FATOR A/C < 0,60
  0
TEXT
  8
6
  6
CONTINUOUS
 10
68.263067
 20
5.253903
 40
0.220000
  1
C30 - SUPERESTRUTURA ; FATOR A/C < 0,55
  0
TEXT
  8
6
  6
CONTINUOUS
 10
64.509948
 20
4.352200
 40
0.220000
  1
03. COBRIMENTO DAS ARMADURAS = 30 mm
  0
TEXT
  8
6
  6
CONTINUOUS
 10
116.547571
 20
4.105188
 40
0.450000
  1
.08
  0
TEXT
  8
6
  6
CONTINUOUS
 10
109.199998
 20
2.650000
 40
0.200000
  1
CARLOS VALÉRIO AVAIS DA ROCHA - CREA 21.833/D-PR
  0
TEXT
  8
6
  6
CONTINUOUS
 10
113.423330
 20
4.105188
 40
0.500000
  1
OAEPT07
  0
TEXT
  8
6
  6
CONTINUOUS
 10
113.574998
 20
1.150000
 40
0.200000
  1
OAEPT-07_08.DWG
  0
TEXT
  8
6
  6
CONTINUOUS
 10
101.099998
 20
5.937500
 40
0.350000
  1
AV. COMENDADOR FRANCO - SUBLOTE 2.3
  0
TEXT
  8
6
  6
CONTINUOUS
 10
100.499998
 20
1.150000
 40
0.200000
  1
NOVEMBRO/2011
  0
ENDSEC
  0
EOF
