  0
SECTION
  2
HEADER
  9
$ACADVER
  1
AC1002
  9
$USERI1
 70
62
  9
$INSBASE
 10
0.000000
 20
0.000000
  9
$EXTMIN
 10
-0.000006
 20
-0.001062
  9
$EXTMAX
 10
120.349998
 20
59.400000
  9
$LIMMIN
 10
0.000000
 20
0.000000
  9
$LIMMAX
 10
12.000000
 20
9.000000
  9
$VIEWCTR
 10
60.174996
 20
29.699469
  9
$VIEWSIZE
 40
75.820503
  9
$TEXTSIZE
 40
0.100000
  9
$TRACEWID
 40
0.010000
  9
$LTSCALE
 40
1.000000
  0
ENDSEC
  0
SECTION
  2
TABLES
  0
TABLE
  2
LTYPE
 70
     3
  0
LTYPE
  2
CONTINUOUS
 70
    64
  3
Solid line
 72
    65
 73
     0
 40
0.000000
  0
LTYPE
  2
ESTILO_TQS_0001
 70
    64
  3
-  -  -  -  -  -
 72
    65
 73
     2
 40
0.350000
 49
0.200000
 49
-0.150000
  0
LTYPE
  2
ESTILO_TQS_0002
 70
    64
  3
. . . . . . . .
 72
    65
 73
     2
 40
0.400000
 49
0.100000
 49
-0.300000
  0
LTYPE
  2
ESTILO_TQS_0003
 70
    64
  3
- . - . - . - .
 72
    65
 73
     4
 40
1.500000
 49
0.500000
 49
-0.400000
 49
0.100000
 49
-0.500000
  0
LTYPE
  2
ESTILO_TQS_0004
 70
    64
  3
- .. - .. - ..
 72
    65
 73
     6
 40
2.000000
 49
0.500000
 49
-0.400000
 49
0.100000
 49
-0.400000
 49
0.100000
 49
-0.500000
  0
LTYPE
  2
ESTILO_TQS_0005
 70
    64
  3
- - - - - - - -
 72
    65
 73
     2
 40
0.400000
 49
0.300000
 49
-0.100000
  0
ENDTAB
  0
TABLE
  2
LAYER
 70
    89
  0
LAYER
  2
0
 70
     0
 62
     7
  6
CONTINUOUS
  0
LAYER
  2
1
 70
     0
 62
    11
  6
CONTINUOUS
  0
LAYER
  2
2
 70
     0
 62
     7
  6
CONTINUOUS
  0
LAYER
  2
3
 70
     0
 62
     7
  6
CONTINUOUS
  0
LAYER
  2
4
 70
     0
 62
     1
  6
CONTINUOUS
  0
LAYER
  2
5
 70
     0
 62
     7
  6
CONTINUOUS
  0
LAYER
  2
6
 70
     0
 62
     4
  6
CONTINUOUS
  0
LAYER
  2
7
 70
     0
 62
     7
  6
CONTINUOUS
  0
LAYER
  2
8
 70
     0
 62
     7
  6
CONTINUOUS
  0
LAYER
  2
9
 70
     0
 62
     7
  6
CONTINUOUS
  0
LAYER
  2
10
 70
     0
 62
     7
  6
CONTINUOUS
  0
LAYER
  2
11
 70
     0
 62
     7
  6
CONTINUOUS
  0
LAYER
  2
12
 70
     0
 62
     7
  6
CONTINUOUS
  0
LAYER
  2
13
 70
     0
 62
     7
  6
CONTINUOUS
  0
LAYER
  2
14
 70
     0
 62
     7
  6
CONTINUOUS
  0
LAYER
  2
15
 70
     0
 62
     7
  6
CONTINUOUS
  0
LAYER
  2
16
 70
     0
 62
     7
  6
CONTINUOUS
  0
LAYER
  2
17
 70
     0
 62
     2
  6
CONTINUOUS
  0
LAYER
  2
18
 70
     0
 62
     4
  6
CONTINUOUS
  0
LAYER
  2
19
 70
     0
 62
     5
  6
CONTINUOUS
  0
LAYER
  2
20
 70
     0
 62
     4
  6
CONTINUOUS
  0
LAYER
  2
21
 70
     0
 62
     2
  6
CONTINUOUS
  0
LAYER
  2
22
 70
     0
 62
     1
  6
CONTINUOUS
  0
LAYER
  2
23
 70
     0
 62
     7
  6
CONTINUOUS
  0
LAYER
  2
24
 70
     0
 62
     6
  6
CONTINUOUS
  0
LAYER
  2
25
 70
     0
 62
     1
  6
CONTINUOUS
  0
LAYER
  2
26
 70
     0
 62
     3
  6
CONTINUOUS
  0
LAYER
  2
27
 70
     0
 62
     4
  6
CONTINUOUS
  0
LAYER
  2
28
 70
     0
 62
     4
  6
CONTINUOUS
  0
LAYER
  2
29
 70
     0
 62
     2
  6
CONTINUOUS
  0
LAYER
  2
30
 70
     0
 62
     4
  6
CONTINUOUS
  0
LAYER
  2
31
 70
     0
 62
     2
  6
CONTINUOUS
  0
LAYER
  2
32
 70
     0
 62
     2
  6
CONTINUOUS
  0
LAYER
  2
33
 70
     0
 62
     2
  6
CONTINUOUS
  0
LAYER
  2
34
 70
     0
 62
     2
  6
CONTINUOUS
  0
LAYER
  2
35
 70
     0
 62
     2
  6
CONTINUOUS
  0
LAYER
  2
36
 70
     0
 62
     2
  6
CONTINUOUS
  0
LAYER
  2
37
 70
     0
 62
     2
  6
CONTINUOUS
  0
LAYER
  2
38
 70
     0
 62
     2
  6
CONTINUOUS
  0
LAYER
  2
39
 70
     0
 62
     2
  6
CONTINUOUS
  0
LAYER
  2
40
 70
     0
 62
     2
  6
CONTINUOUS
  0
LAYER
  2
41
 70
     0
 62
     2
  6
CONTINUOUS
  0
LAYER
  2
42
 70
     0
 62
     2
  6
CONTINUOUS
  0
LAYER
  2
43
 70
     0
 62
     2
  6
CONTINUOUS
  0
LAYER
  2
44
 70
     0
 62
     2
  6
CONTINUOUS
  0
LAYER
  2
45
 70
     0
 62
     2
  6
CONTINUOUS
  0
LAYER
  2
46
 70
     0
 62
     2
  6
CONTINUOUS
  0
LAYER
  2
47
 70
     0
 62
     2
  6
CONTINUOUS
  0
LAYER
  2
48
 70
     0
 62
     2
  6
CONTINUOUS
  0
LAYER
  2
49
 70
     0
 62
     2
  6
CONTINUOUS
  0
LAYER
  2
50
 70
     0
 62
     2
  6
CONTINUOUS
  0
LAYER
  2
51
 70
     0
 62
     2
  6
CONTINUOUS
  0
LAYER
  2
52
 70
     0
 62
     2
  6
CONTINUOUS
  0
LAYER
  2
53
 70
     0
 62
     2
  6
CONTINUOUS
  0
LAYER
  2
54
 70
     0
 62
     2
  6
CONTINUOUS
  0
LAYER
  2
55
 70
     0
 62
     2
  6
CONTINUOUS
  0
LAYER
  2
56
 70
     0
 62
     2
  6
CONTINUOUS
  0
LAYER
  2
57
 70
     0
 62
     2
  6
CONTINUOUS
  0
LAYER
  2
58
 70
     0
 62
     2
  6
CONTINUOUS
  0
LAYER
  2
59
 70
     0
 62
     2
  6
CONTINUOUS
  0
LAYER
  2
60
 70
     0
 62
     2
  6
CONTINUOUS
  0
LAYER
  2
61
 70
     0
 62
     2
  6
CONTINUOUS
  0
LAYER
  2
62
 70
     0
 62
     2
  6
CONTINUOUS
  0
LAYER
  2
63
 70
     0
 62
     2
  6
CONTINUOUS
  0
LAYER
  2
64
 70
     0
 62
     2
  6
CONTINUOUS
  0
LAYER
  2
65
 70
     0
 62
     2
  6
CONTINUOUS
  0
LAYER
  2
66
 70
     0
 62
     2
  6
CONTINUOUS
  0
LAYER
  2
67
 70
     0
 62
     2
  6
CONTINUOUS
  0
LAYER
  2
68
 70
     0
 62
     2
  6
CONTINUOUS
  0
LAYER
  2
69
 70
     0
 62
     2
  6
CONTINUOUS
  0
LAYER
  2
70
 70
     0
 62
     2
  6
CONTINUOUS
  0
LAYER
  2
71
 70
     0
 62
     2
  6
CONTINUOUS
  0
LAYER
  2
72
 70
     0
 62
     2
  6
CONTINUOUS
  0
LAYER
  2
73
 70
     0
 62
     2
  6
CONTINUOUS
  0
LAYER
  2
74
 70
     0
 62
     2
  6
CONTINUOUS
  0
LAYER
  2
75
 70
     0
 62
     2
  6
CONTINUOUS
  0
LAYER
  2
76
 70
     0
 62
     2
  6
CONTINUOUS
  0
LAYER
  2
77
 70
     0
 62
     2
  6
CONTINUOUS
  0
LAYER
  2
78
 70
     0
 62
     2
  6
CONTINUOUS
  0
LAYER
  2
79
 70
     0
 62
     2
  6
CONTINUOUS
  0
LAYER
  2
80
 70
     0
 62
     2
  6
CONTINUOUS
  0
LAYER
  2
81
 70
     0
 62
     2
  6
CONTINUOUS
  0
LAYER
  2
82
 70
     0
 62
     2
  6
CONTINUOUS
  0
LAYER
  2
83
 70
     0
 62
     2
  6
CONTINUOUS
  0
LAYER
  2
84
 70
     0
 62
     2
  6
CONTINUOUS
  0
LAYER
  2
85
 70
     0
 62
     2
  6
CONTINUOUS
  0
LAYER
  2
86
 70
     0
 62
     2
  6
CONTINUOUS
  0
LAYER
  2
87
 70
     0
 62
     2
  6
CONTINUOUS
  0
LAYER
  2
88
 70
     0
 62
     2
  6
CONTINUOUS
  0
LAYER
  2
89
 70
     0
 62
     2
  6
CONTINUOUS
  0
LAYER
  2
90
 70
     0
 62
     2
  6
CONTINUOUS
  0
LAYER
  2
91
 70
     0
 62
     2
  6
CONTINUOUS
  0
LAYER
  2
92
 70
     0
 62
     2
  6
CONTINUOUS
  0
LAYER
  2
93
 70
     0
 62
     2
  6
CONTINUOUS
  0
LAYER
  2
94
 70
     0
 62
     2
  6
CONTINUOUS
  0
LAYER
  2
95
 70
     0
 62
     2
  6
CONTINUOUS
  0
LAYER
  2
96
 70
     0
 62
     2
  6
CONTINUOUS
  0
LAYER
  2
97
 70
     0
 62
     2
  6
CONTINUOUS
  0
LAYER
  2
98
 70
     0
 62
     2
  6
CONTINUOUS
  0
LAYER
  2
99
 70
     0
 62
     2
  6
CONTINUOUS
  0
LAYER
  2
100
 70
     0
 62
     1
  6
CONTINUOUS
  0
LAYER
  2
101
 70
     0
 62
     9
  6
CONTINUOUS
  0
LAYER
  2
102
 70
     0
 62
     7
  6
CONTINUOUS
  0
LAYER
  2
103
 70
     0
 62
     2
  6
CONTINUOUS
  0
LAYER
  2
104
 70
     0
 62
    11
  6
CONTINUOUS
  0
LAYER
  2
105
 70
     0
 62
     3
  6
CONTINUOUS
  0
LAYER
  2
106
 70
     0
 62
     5
  6
CONTINUOUS
  0
LAYER
  2
107
 70
     0
 62
     3
  6
CONTINUOUS
  0
LAYER
  2
108
 70
     0
 62
     5
  6
CONTINUOUS
  0
LAYER
  2
109
 70
     0
 62
     3
  6
CONTINUOUS
  0
LAYER
  2
110
 70
     0
 62
     2
  6
CONTINUOUS
  0
LAYER
  2
111
 70
     0
 62
     2
  6
CONTINUOUS
  0
LAYER
  2
112
 70
     0
 62
     2
  6
CONTINUOUS
  0
LAYER
  2
113
 70
     0
 62
     2
  6
CONTINUOUS
  0
LAYER
  2
114
 70
     0
 62
     2
  6
CONTINUOUS
  0
LAYER
  2
115
 70
     0
 62
     2
  6
CONTINUOUS
  0
LAYER
  2
116
 70
     0
 62
     2
  6
CONTINUOUS
  0
LAYER
  2
117
 70
     0
 62
     2
  6
CONTINUOUS
  0
LAYER
  2
118
 70
     0
 62
     2
  6
CONTINUOUS
  0
LAYER
  2
119
 70
     0
 62
     2
  6
CONTINUOUS
  0
LAYER
  2
120
 70
     0
 62
     2
  6
CONTINUOUS
  0
LAYER
  2
121
 70
     0
 62
     2
  6
CONTINUOUS
  0
LAYER
  2
122
 70
     0
 62
     2
  6
CONTINUOUS
  0
LAYER
  2
123
 70
     0
 62
     2
  6
CONTINUOUS
  0
LAYER
  2
124
 70
     0
 62
     2
  6
CONTINUOUS
  0
LAYER
  2
125
 70
     0
 62
     2
  6
CONTINUOUS
  0
LAYER
  2
126
 70
     0
 62
     2
  6
CONTINUOUS
  0
LAYER
  2
127
 70
     0
 62
     2
  6
CONTINUOUS
  0
LAYER
  2
128
 70
     0
 62
     2
  6
CONTINUOUS
  0
LAYER
  2
129
 70
     0
 62
     2
  6
CONTINUOUS
  0
LAYER
  2
130
 70
     0
 62
     2
  6
CONTINUOUS
  0
LAYER
  2
131
 70
     0
 62
     2
  6
CONTINUOUS
  0
LAYER
  2
132
 70
     0
 62
     2
  6
CONTINUOUS
  0
LAYER
  2
133
 70
     0
 62
     2
  6
CONTINUOUS
  0
LAYER
  2
134
 70
     0
 62
     2
  6
CONTINUOUS
  0
LAYER
  2
135
 70
     0
 62
     2
  6
CONTINUOUS
  0
LAYER
  2
136
 70
     0
 62
     2
  6
CONTINUOUS
  0
LAYER
  2
137
 70
     0
 62
     2
  6
CONTINUOUS
  0
LAYER
  2
138
 70
     0
 62
     2
  6
CONTINUOUS
  0
LAYER
  2
139
 70
     0
 62
     2
  6
CONTINUOUS
  0
LAYER
  2
140
 70
     0
 62
     2
  6
CONTINUOUS
  0
LAYER
  2
141
 70
     0
 62
     2
  6
CONTINUOUS
  0
LAYER
  2
142
 70
     0
 62
     2
  6
CONTINUOUS
  0
LAYER
  2
143
 70
     0
 62
     2
  6
CONTINUOUS
  0
LAYER
  2
144
 70
     0
 62
     2
  6
CONTINUOUS
  0
LAYER
  2
145
 70
     0
 62
     2
  6
CONTINUOUS
  0
LAYER
  2
146
 70
     0
 62
     2
  6
CONTINUOUS
  0
LAYER
  2
147
 70
     0
 62
     2
  6
CONTINUOUS
  0
LAYER
  2
148
 70
     0
 62
     2
  6
CONTINUOUS
  0
LAYER
  2
149
 70
     0
 62
     2
  6
CONTINUOUS
  0
LAYER
  2
150
 70
     0
 62
     2
  6
CONTINUOUS
  0
LAYER
  2
151
 70
     0
 62
     2
  6
CONTINUOUS
  0
LAYER
  2
152
 70
     0
 62
     2
  6
CONTINUOUS
  0
LAYER
  2
153
 70
     0
 62
     2
  6
CONTINUOUS
  0
LAYER
  2
154
 70
     0
 62
     2
  6
CONTINUOUS
  0
LAYER
  2
155
 70
     0
 62
     2
  6
CONTINUOUS
  0
LAYER
  2
156
 70
     0
 62
     2
  6
CONTINUOUS
  0
LAYER
  2
157
 70
     0
 62
     2
  6
CONTINUOUS
  0
LAYER
  2
158
 70
     0
 62
     2
  6
CONTINUOUS
  0
LAYER
  2
159
 70
     0
 62
     2
  6
CONTINUOUS
  0
LAYER
  2
160
 70
     0
 62
     2
  6
CONTINUOUS
  0
LAYER
  2
161
 70
     0
 62
     2
  6
CONTINUOUS
  0
LAYER
  2
162
 70
     0
 62
     2
  6
CONTINUOUS
  0
LAYER
  2
163
 70
     0
 62
     2
  6
CONTINUOUS
  0
LAYER
  2
164
 70
     0
 62
     2
  6
CONTINUOUS
  0
LAYER
  2
165
 70
     0
 62
     2
  6
CONTINUOUS
  0
LAYER
  2
166
 70
     0
 62
     2
  6
CONTINUOUS
  0
LAYER
  2
167
 70
     0
 62
     2
  6
CONTINUOUS
  0
LAYER
  2
168
 70
     0
 62
     2
  6
CONTINUOUS
  0
LAYER
  2
169
 70
     0
 62
     2
  6
CONTINUOUS
  0
LAYER
  2
170
 70
     0
 62
     2
  6
CONTINUOUS
  0
LAYER
  2
171
 70
     0
 62
     2
  6
CONTINUOUS
  0
LAYER
  2
172
 70
     0
 62
     2
  6
CONTINUOUS
  0
LAYER
  2
173
 70
     0
 62
     2
  6
CONTINUOUS
  0
LAYER
  2
174
 70
     0
 62
     2
  6
CONTINUOUS
  0
LAYER
  2
175
 70
     0
 62
     2
  6
CONTINUOUS
  0
LAYER
  2
176
 70
     0
 62
     2
  6
CONTINUOUS
  0
LAYER
  2
177
 70
     0
 62
     2
  6
CONTINUOUS
  0
LAYER
  2
178
 70
     0
 62
     2
  6
CONTINUOUS
  0
LAYER
  2
179
 70
     0
 62
     2
  6
CONTINUOUS
  0
LAYER
  2
180
 70
     0
 62
     2
  6
CONTINUOUS
  0
LAYER
  2
181
 70
     0
 62
     2
  6
CONTINUOUS
  0
LAYER
  2
182
 70
     0
 62
     2
  6
CONTINUOUS
  0
LAYER
  2
183
 70
     0
 62
     2
  6
CONTINUOUS
  0
LAYER
  2
184
 70
     0
 62
     2
  6
CONTINUOUS
  0
LAYER
  2
185
 70
     0
 62
     2
  6
CONTINUOUS
  0
LAYER
  2
186
 70
     0
 62
     2
  6
CONTINUOUS
  0
LAYER
  2
187
 70
     0
 62
     2
  6
CONTINUOUS
  0
LAYER
  2
188
 70
     0
 62
     2
  6
CONTINUOUS
  0
LAYER
  2
189
 70
     0
 62
     2
  6
CONTINUOUS
  0
LAYER
  2
190
 70
     0
 62
     2
  6
CONTINUOUS
  0
LAYER
  2
191
 70
     0
 62
     2
  6
CONTINUOUS
  0
LAYER
  2
192
 70
     0
 62
     2
  6
CONTINUOUS
  0
LAYER
  2
193
 70
     0
 62
     2
  6
CONTINUOUS
  0
LAYER
  2
194
 70
     0
 62
     2
  6
CONTINUOUS
  0
LAYER
  2
195
 70
     0
 62
     2
  6
CONTINUOUS
  0
LAYER
  2
196
 70
     0
 62
     2
  6
CONTINUOUS
  0
LAYER
  2
197
 70
     0
 62
     3
  6
CONTINUOUS
  0
LAYER
  2
198
 70
     0
 62
     2
  6
CONTINUOUS
  0
LAYER
  2
199
 70
     0
 62
     6
  6
CONTINUOUS
  0
LAYER
  2
200
 70
     0
 62
     7
  6
ESTILO_TQS_0002
  0
LAYER
  2
201
 70
     0
 62
     7
  6
ESTILO_TQS_0001
  0
LAYER
  2
202
 70
     0
 62
     7
  6
CONTINUOUS
  0
LAYER
  2
203
 70
     0
 62
     7
  6
ESTILO_TQS_0001
  0
LAYER
  2
204
 70
     0
 62
     7
  6
ESTILO_TQS_0003
  0
LAYER
  2
205
 70
     0
 62
     5
  6
ESTILO_TQS_0004
  0
LAYER
  2
206
 70
     0
 62
    15
  6
CONTINUOUS
  0
LAYER
  2
207
 70
     0
 62
     2
  6
CONTINUOUS
  0
LAYER
  2
208
 70
     0
 62
     5
  6
CONTINUOUS
  0
LAYER
  2
210
 70
     0
 62
    15
  6
ESTILO_TQS_0002
  0
LAYER
  2
211
 70
     0
 62
     7
  6
ESTILO_TQS_0001
  0
LAYER
  2
214
 70
     0
 62
    15
  6
CONTINUOUS
  0
LAYER
  2
215
 70
     0
 62
     2
  6
CONTINUOUS
  0
LAYER
  2
216
 70
     0
 62
     3
  6
CONTINUOUS
  0
LAYER
  2
217
 70
     0
 62
     3
  6
CONTINUOUS
  0
LAYER
  2
218
 70
     0
 62
     2
  6
CONTINUOUS
  0
LAYER
  2
219
 70
     0
 62
    15
  6
CONTINUOUS
  0
LAYER
  2
220
 70
     0
 62
    10
  6
CONTINUOUS
  0
LAYER
  2
221
 70
     0
 62
    11
  6
CONTINUOUS
  0
LAYER
  2
222
 70
     0
 62
    12
  6
CONTINUOUS
  0
LAYER
  2
223
 70
     0
 62
     6
  6
CONTINUOUS
  0
LAYER
  2
224
 70
     0
 62
     1
  6
CONTINUOUS
  0
LAYER
  2
225
 70
     0
 62
    15
  6
CONTINUOUS
  0
LAYER
  2
226
 70
     0
 62
     2
  6
CONTINUOUS
  0
LAYER
  2
227
 70
     0
 62
    10
  6
CONTINUOUS
  0
LAYER
  2
228
 70
     0
 62
    11
  6
CONTINUOUS
  0
LAYER
  2
229
 70
     0
 62
    12
  6
CONTINUOUS
  0
LAYER
  2
230
 70
     0
 62
     6
  6
CONTINUOUS
  0
LAYER
  2
231
 70
     0
 62
     3
  6
CONTINUOUS
  0
LAYER
  2
232
 70
     0
 62
    12
  6
CONTINUOUS
  0
LAYER
  2
233
 70
     0
 62
     4
  6
CONTINUOUS
  0
LAYER
  2
234
 70
     0
 62
    13
  6
CONTINUOUS
  0
LAYER
  2
235
 70
     0
 62
     5
  6
CONTINUOUS
  0
LAYER
  2
236
 70
     0
 62
     2
  6
CONTINUOUS
  0
LAYER
  2
237
 70
     0
 62
     6
  6
CONTINUOUS
  0
LAYER
  2
238
 70
     0
 62
    12
  6
CONTINUOUS
  0
LAYER
  2
239
 70
     0
 62
    11
  6
CONTINUOUS
  0
LAYER
  2
240
 70
     0
 62
    11
  6
CONTINUOUS
  0
LAYER
  2
241
 70
     0
 62
    12
  6
CONTINUOUS
  0
LAYER
  2
242
 70
     0
 62
     7
  6
CONTINUOUS
  0
LAYER
  2
243
 70
     0
 62
     7
  6
CONTINUOUS
  0
LAYER
  2
244
 70
     0
 62
     7
  6
CONTINUOUS
  0
LAYER
  2
245
 70
     0
 62
     7
  6
CONTINUOUS
  0
LAYER
  2
246
 70
     0
 62
     7
  6
CONTINUOUS
  0
LAYER
  2
247
 70
     0
 62
     7
  6
CONTINUOUS
  0
LAYER
  2
248
 70
     0
 62
     9
  6
CONTINUOUS
  0
LAYER
  2
249
 70
     0
 62
     7
  6
CONTINUOUS
  0
LAYER
  2
250
 70
     0
 62
     7
  6
CONTINUOUS
  0
ENDTAB
  0
TABLE
  2
STYLE
 70
     1
  0
STYLE
  2
STANDARD
 70
    64
 40
0.000000
 41
1.000000
 50
0.000000
 71
     0
 42
0.200000
  3
ROMANS.SHX
  4

  0
ENDTAB
  0
TABLE
  2
VIEW
 70
     0
  0
ENDTAB
  0
ENDSEC
  0
SECTION
  2
BLOCKS
  0
BLOCK
  8
0
  2
_PLWTQS
 70
    64
 10
0.000000
 20
0.000000
  0
TEXT
  8
0
  6
CONTINUOUS
 10
0.000000
 20
0.000000
 40
0.200000
  1
$PLWDWGGlBMVwAAAAAAAChAAQAAADt1Fw9ybJCsHeqMuSYQdED97d7MTK+Lp9WBmZau5Y+NsJkPDQNA5sx2C5ouM73q5TOMAFZHXBlktjjG2q3DmIfxoXv9M92xS+bPNxEasJinu59Y4p3niSjGtFHRD/36Ap+yqvuSSPBZH2lu77GypYc=
  0
TEXT
  8
0
  6
CONTINUOUS
 10
0.000000
 20
-0.250000
 40
0.200000
  1
$PLWDWGQZMZL68Q4yDxeNVaN8H2uhcoJpGwztxqlUJJJtuPECkfBBDXi1z6KHyG/OEOHXrFm/eT4QJR9lk9UiS6PCJW8LtjD5s2hdMLV3t4wWQGufAeDgS0eZZcoSkmWC0+Ci9qT/ktCedwWynCGUYF+eFxO2nBrA3mjXCg0WalRWsrI9Q=
  0
TEXT
  8
0
  6
CONTINUOUS
 10
0.000000
 20
-0.500000
 40
0.200000
  1
$PLWDWGWCjE0Z6mZPz9cpeJPiIFCX0BMr/+Ky1HqU59/jre0Pj/9XvLEO0nhFQxAZTROl0Mmc8Ztb5nfOR690iGIj8d6iVVLt9KBOPdkjg0YNNuHVcEAWAXkCvrvNN8Fv/J4Wm900zaPmAosPeOI+cjYuGjeXIk3w6KQfxguuOmXa4chZU=
  0
TEXT
  8
0
  6
CONTINUOUS
 10
0.000000
 20
-0.750000
 40
0.200000
  1
$PLWDWGu3Jd3abYbxSTO9hHOce2eZNzYGneBkZX+4gnzSeyZ6TATfDaUv8jsDu+v4P7Qoc0TS6Su8C1ZaGZoommXN61MtZfDKyQKjPq2XILkw9mL45KHtSqrCSvX+c0mPMtVpj/vLscFesQUosqNk3GOFLza61W3uLYtFztM53NPJ6qy0g=
  0
TEXT
  8
0
  6
CONTINUOUS
 10
0.000000
 20
-1.000000
 40
0.200000
  1
$PLWDWGp0ZoxZbWjgGK/MZLyq+qNCA0j+C9+qMcQWdOgLBYv9yIQuS/M0ce4lkfhlKWjifkTP7tSlb8ZIlJ6cy0mfRf6SPXfM8GaN41dVreXgmhmC/mBTIGMPB+ya8wRobTprjXOzrupmjCaDK04kJhJm9XnsJMbNEQOeayJbJs8ADRtKQ=
  0
TEXT
  8
0
  6
CONTINUOUS
 10
0.000000
 20
-1.250000
 40
0.200000
  1
$PLWDWGEKQ5uqxUDms0Jzqfcu4Ak788t4w7a9WLZyq9YrzAxjPvh1r3zmo3qZZbkdJu7RSIdGBMMCi0bRSjkT4NSxTbCbiZLv7q55AmaX6+DhS1r8d3GYSYXZYinQU1phGbqcEvtNw5z2RbWXtzCk1EzZTAn4O8P52I27G0WqHc4tlenD8=
  0
TEXT
  8
0
  6
CONTINUOUS
 10
0.000000
 20
-1.500000
 40
0.200000
  1
$PLWDWGUYJ080ya5iEBOQm4yIfDiodgFDnKjsOiI4Fi57YiJGkXjZVFz09nRcEU5nb9RMv5aQHZKRRUl4ku7r3MqX9ehozOlL7ZTlStvpctMwzPJugvIZoHkDlAEqpaWrBvfm7Eux/lSQS8FcbA75FPdG2mKrm4rVItl/3PY6igqQTfbWM=
  0
TEXT
  8
0
  6
CONTINUOUS
 10
0.000000
 20
-1.750000
 40
0.200000
  1
$PLWDWGPoZzytGys2XrCN4uZ89+5Ej74/zsNBVy3xJZAucnnbgFqUXFZXQt2pv26jYN+TQ4+TdvbEUhfqITY/aDWHGSh9wr4SZ14kgied6RwMZMVHalY4ANgOtzgeqstZyTDqLYExXSzIAu/I4lZGGoIRjHPkyvNtmWrxPjKLp6XBV2zEY=
  0
TEXT
  8
0
  6
CONTINUOUS
 10
0.000000
 20
-2.000000
 40
0.200000
  1
$PLWDWGkhvAy+5BIIGPghZGBA0yycfnQ54Xi0plwmU+yimgptciJyNie2eEjCMt+7cFLMHCrMyC3efwokUX5S0AuosijY96E22XFTC0TTlhz2Yx/sfb5Ap4hpOQZ44zPojDsEmPYBa80Rd4ydZUC7arzGqiyT6bud1rHDZZnlQhq7S3qF4=
  0
TEXT
  8
0
  6
CONTINUOUS
 10
0.000000
 20
-2.250000
 40
0.200000
  1
$PLWDWGMc5KYprKu4axluiTHx0ZFD8Y50fn+/7dPx4HZpeND0o2GK30+GBcXFaQa45snpfVDH0zYvNKAgC1ixemcbVRwRaouEjX9AOicf1INc0mAwHfQXpN6Btl4q0d0HiyMMNzWLyhepFvT4UHZNzNdMUFnf/gkRKEGqRxAgsELg1/7LQ=
  0
TEXT
  8
0
  6
CONTINUOUS
 10
0.000000
 20
-2.500000
 40
0.200000
  1
$PLWDWG3XC4A39FoJ4Wq5CAs2TFdGut8rs6n+ST4RjQs3ASMgb2bA1uHJdHMlLlVFd+S5D1CqMrP6C0mxByuKDYtNkMUlL4VfnBi2noaOTEB6wlAGux74IRHI2w88wh1//wCoc+GOvVaLbR0wJm0jFIU0KDUy5E+/RF7FIn+cizsqFPVnM=
  0
TEXT
  8
0
  6
CONTINUOUS
 10
0.000000
 20
-2.750000
 40
0.200000
  1
$PLWDWGqURfg25Ufx7rIfSkIB6OJ7IKarnxHJnUKpawMwmZjgLE7UBrXHhEQBg6eVbp0OiUZWHSNeHR/ajtbwaNg2+tBurC5doca0GdXFp9ta1jXzfVlMv74TKsV366wIMIm3/xzQQvIJX01MmJ3PxADeeoY4AjlB1Cd9hA/Ib57pKkwKY=
  0
TEXT
  8
0
  6
CONTINUOUS
 10
0.000000
 20
-3.000000
 40
0.200000
  1
$PLWDWGb82GQ+uLbETDauEbQdxXCFepK9EeGO/1H5qse2z2CLk9w9WzcaQ1F4lHvFWr9O4LYswy8lSAdB1O3b2VbZFqb8U8v0mWcuLsfXIAy+ZbDbqsKkEy9WJg7br1G9N45fMFoAxiSM6fgxs6epUoFr1LuCUZCi1ubMLUkK89GcrN+H0=
  0
TEXT
  8
0
  6
CONTINUOUS
 10
0.000000
 20
-3.250000
 40
0.200000
  1
$PLWDWGysdNKQAsJz306u4uljT86QxBw56bNdTjfB0Gdnr/51MAGJgihkeFZB8fhuytjHNZaUt+4L1SLgKVfXakhWptSDZslJMuVcYFVgLQ2QRHRrHNF+q6qw4aXixtvply16Bkujjvz3WhRlqxR/cytNc5f+vKRE+naDutT4FsVIPynwI=
  0
TEXT
  8
0
  6
CONTINUOUS
 10
0.000000
 20
-3.500000
 40
0.200000
  1
$PLWDWGvfReyufVWT1niZOTaNJ9y7MtwMCwyyxqHpidCYJS3a95Htw97pMny1stTso5lCHJnj+YkeWRO/m73/tkXMrHdvbcHh7sPEgOAFjVJQI9PP8mOD9/y5hRWbSx3msCgEzx4dNXXOG5fPQCxIZjVlebzQprWwBpncvOamX/yk3MY1Y=
  0
TEXT
  8
0
  6
CONTINUOUS
 10
0.000000
 20
-3.750000
 40
0.200000
  1
$PLWDWG4zgLNnWm/aOex/VDNknyBgFtX6lDMFm8PgprmWLoSED/GignL1f99AePJQiZt87Yo6fg6eg2AGhLuj0s9GW9Rh1WsHO/Qq9sNcp7Iba7us9rraD/GZN/oHi6//XHCctzPB+BtsvkQsDMB/rLplEEVeXjFWIaqJv3x2R5lU6q7sc=
  0
TEXT
  8
0
  6
CONTINUOUS
 10
0.000000
 20
-4.000000
 40
0.200000
  1
$PLWDWGs3hFMQRh23ejb8XGb++Ba2tvCEuS8l6pMKcNGP9gxzJfGaJJ6iW+1H22V+Vl1eyFPjsblsbkrUUbFLDqoduJTogucih6qjybSeOBmTBBPNLrOPkLDmC0Gn52aaE59l0KBwkfUuNzMnNJfrR1j8fLjqtVbhmo0sCBskcmSdJZZu8=
  0
TEXT
  8
0
  6
CONTINUOUS
 10
0.000000
 20
-4.250000
 40
0.200000
  1
$PLWDWGVRds1KeXblJfsY/hCiVRlmetcPYsIyGC6LbTN13ArTVE1dGCJdkfnSMD0keCl8KELf0OpAxrcUpbfzvQWacx/aZToand9iPzNwxDMUZr2s/fs2eML146/pMniz93sQZ2Y0ycSFOE1M4eKjSXfLmJqAkiCm1hdMd65kL/urSn/QU=
  0
TEXT
  8
0
  6
CONTINUOUS
 10
0.000000
 20
-4.500000
 40
0.200000
  1
$PLWDWGP8frqvEjkd5XC2n8OE6ogdBJF+VIlJxgvUFqcU+HwKqL7MtYLWVfsiS4u9zFdACEBdGPU4/Mf2ixdfGf2rIZYCqeeZsgxl+jE07ATvJXhP4h1L75F+POTQV/B1khDnnzMSSUHLFDQjCJeFOD8YlaB04CutCVGaDTSVmVlR+4v7I=
  0
TEXT
  8
0
  6
CONTINUOUS
 10
0.000000
 20
-4.750000
 40
0.200000
  1
$PLWDWG8A7smKmo5EDePlwObvHV9TT/3IPVAkpAZUaCLceBC4Nxe9HEhDqAhT+DXXeCUIDQSQ+rpsU0a+8q93cTQ+KB5dk5AkGKqrMw+Z+iVH+NIYP4Lb4kuCJzlMxP9AIxOjRvpvSUgAK4qxYeBOHsPc3Cs7vWMSw6JkwzGiIDExgDQy4=
  0
TEXT
  8
0
  6
CONTINUOUS
 10
0.000000
 20
-5.000000
 40
0.200000
  1
$PLWDWG1KtKLpdKeTfot2skNz2xVbCFfv3cF/3vNh9Nqap3/fGuWfHh0JAfBudeetUJInpl67kW/8wafh9LQIATgQDYkntpcc6bHSy7+WyRVTY3UHqWGuhO/4jQ1gfj9ROiq20D0Uqcx7wmpsh5N9MZIMViZZe7lCbbmqTyKikPGo+hQVA=
  0
TEXT
  8
0
  6
CONTINUOUS
 10
0.000000
 20
-5.250000
 40
0.200000
  1
$PLWDWGsSoN+bpEwCClOX3dH7+/tLZb0CMIJHi0VG/Rz00FxR96Hd68zrl5WBWrvXdHOMJYjt9z6KEJO4glZF/FwaQGDWSekWPhJiO+EpiPujGToZfugDZHf14D+ELCv2ePO1cjKZF/yvr6jPlp9i2Ma/AWdhQEHZRnqbas/qSwjBiB4jc=
  0
TEXT
  8
0
  6
CONTINUOUS
 10
0.000000
 20
-5.500000
 40
0.200000
  1
$PLWDWGtcaC/tvB+JuztOwJFrnqnQaIJKGMOQNzIo+gdTnA/lSF4CN6bXSYb8iYTUpIBzcG9voU3GInrLbY9WjOv7fBzYUavxjQ2euNx3T2ySvxQ0lWeNr57jNpiA4eTnEHJueTqZENye/2xq+DpnXb9eCgzJOQSa1gPMaTKaDKJaTkCm0=
  0
TEXT
  8
0
  6
CONTINUOUS
 10
0.000000
 20
-5.750000
 40
0.200000
  1
$PLWDWGeLGT4S2JrNhuR6tGZY9EQKTFqbSAExuduzTihfxoYISehLdg9+lcjeziqkULaE5MXqBF5pd56PkMyONzsLJG3BK0sYoSlA41BclZdU70P7jLVO/cdPBCesIWh7pTD5ieIYAZC81Nl9LswFQ8y3n4pJV0RM7zfV6qPlVa91uEJj8=
  0
TEXT
  8
0
  6
CONTINUOUS
 10
0.000000
 20
-6.000000
 40
0.200000
  1
$PLWDWGC2ZuBQq/u8TsCNkIoW2wk0dSw/ms4ZkGFVDzrkXumMmrx3fE48MYdvln6XurNnvrrohBFRJAlKzRqru1hidJ9EtErexh99DFj/0uz8OA15rDEV3GxU9+4E6KKbdzBVyH0oIDZbyND2/+8qANKQEPEATPXdl5xjsIiBPStxkPgLQ=
  0
TEXT
  8
0
  6
CONTINUOUS
 10
0.000000
 20
-6.250000
 40
0.200000
  1
$PLWDWGnl7sOUeNnwjCx10sX1AfI4DebLeIY6KMbVW7tMuyp9i9g6ztfgnxfaH+TPtrl2GiWfT4TjgLCG/w+S3w+ymOfWDLzo2DPoLg1aeqrtwCv2iZ/2oex8QlUVAIWRiKpKuEKh9Fv0u77/ROlAJEFTzAexbxkQPS/gH62x9WccFvIvw=
  0
TEXT
  8
0
  6
CONTINUOUS
 10
0.000000
 20
-6.500000
 40
0.200000
  1
$PLWDWGNsD0yjP82oIs3fJDjaLN9cI54of1Ga/njAixyytSwSZB74bZaF+lZpBfyJJujyKLETxW3rgFJXyO+5h/1I+idoZkGSJ5uU2uLD9O3dIMCGr2UJpPCiOt0ViRNXZTLuuBCKJk7PR1ISIOTWqHS3opCocrWv6T61GBkEZnOOOLxlI=
  0
TEXT
  8
0
  6
CONTINUOUS
 10
0.000000
 20
-6.750000
 40
0.200000
  1
$PLWDWG0g7UZ+5hSEBtJb5fx36+L4gOWfoXWTib0cLiC92vow3X78nYsYhkl889VhJlreRDAS6HSBniNgQWaqsIGMtdF+PsOtVhOafVTnnDCWhvTngnyLMvmGydXU6AV6qnwbbbtxLRdu8x17rwjK9mAMFjE8Fboi5PSEbLQC4cHu5BAxQ=
  0
TEXT
  8
0
  6
CONTINUOUS
 10
0.000000
 20
-7.000000
 40
0.200000
  1
$PLWDWGX4bWORm7injkqEBlPrvWiUWIyp0Egsqr1t9J4p01E8gFqF08Swp/bK4qdMiy55tZPdd5AJz4mHCnx+waSMzIc7nxB1N5WOYeWADycaPNz+aWMm+mauz9bdgvqr9b9gmT7lfrToMViB3RXu70t0X1U0tr8fPauD3rxRkNh2dcgdw=
  0
TEXT
  8
0
  6
CONTINUOUS
 10
0.000000
 20
-7.250000
 40
0.200000
  1
$PLWDWGvj/AMLxKeknVaoWQbU3s2MO3y+ynsSGLcOgAv1lU6TjUHzrWgB+qvJq98eOtpj1BKtXIhYlk/Zv/MCiCOsi5L+8mGeE0FLMaMibjtKXzD5a9R2WLWbZveYbiffIevdc3Hg8DfWHFKaM4q4mS0KWC5irDjd8Qo50b/tWo64q/thU=
  0
TEXT
  8
0
  6
CONTINUOUS
 10
0.000000
 20
-7.500000
 40
0.200000
  1
$PLWDWGSC8TRLrIARWDEmRsE4buy6GeUty+vga0h3LStdpnNR26bm3Puten7UPzpmjJRbpxyIJPVwC8uahhYnGbb+z0ZmT87oFyd37vKTJ4UBBHsbRwkzj+BnvmOhtbNh4F2ZjZRIhVaZWICIz2qlUsq6LctD75rNR/ph2VpPFpq4g4RkA=
  0
TEXT
  8
0
  6
CONTINUOUS
 10
0.000000
 20
-7.750000
 40
0.200000
  1
$PLWDWGzADAOQn0QpjyKGFR/TCEOFchrQEpjKvXgVyXOOg7s0jzaMCDMDPHeaPZ2mZSt0WaiITQMK4AtBbn+cb501h6hmmdsoeACaSP4JcWG/C7Mp4DG1zhEYjyP4idUaO8uriHDKNnFM6CC0febpAfPx9eavniFuvVml3dfm2OUkGA+y4=
  0
TEXT
  8
0
  6
CONTINUOUS
 10
0.000000
 20
-8.000000
 40
0.200000
  1
$PLWDWG79zXoo514PA5qqK4PzPBYKRmTY4yzukHFXkj4ErTR1gxWYrlUmgOFBrZnqGU+iiw/hSgD/9PFlqQyMeF7MOxqXjxHf7UIEHEvx2j0UhiQUHD4K7+I35k+dfUSRvnRifBksMSsD4yzA7lk3b2Uw13iNlEJFST4hdEBxJuwk3BMv0=
  0
TEXT
  8
0
  6
CONTINUOUS
 10
0.000000
 20
-8.250000
 40
0.200000
  1
$PLWDWGNg2pIsAPjRw7AbD1l2teqzan5tpVdXrDHMb+/mvaTL/eir2PoUx4XjgoOrv41jZFtCozeWwa/vx/kdHN/VgLQ0BVOabJcQ3t3k4Lw3564k8zVe9A6jZaseeXquduTmnsJ+9YaXarb7L2XseW/+XyOGQpHDibDX5iTwWRwBchIEk=
  0
TEXT
  8
0
  6
CONTINUOUS
 10
0.000000
 20
-8.500000
 40
0.200000
  1
$PLWDWG9t34SgpJPJU8pqIcS49mtA6uSoymz7c2ki2kuRIp7xOuyp4dXD+wLeZuq8iMaW4hYHz+RXktOtkvD3pL8uRcApE+HcT+77+ExY+48/NcYzcSvce3G9LJUTET9ehFuMFLtTsMC9KUvB9sEXEV28wt4lHG36veeSVAFF5Ei5GZBrc=
  0
TEXT
  8
0
  6
CONTINUOUS
 10
0.000000
 20
-8.750000
 40
0.200000
  1
$PLWDWGEKBroftB+pHv66eUuISnxndqOcUMIZTGz0CMQCclWwUsdL6lZDKx1BGOf7isaX+mAtvB2W4SyitCMO7TRAhhohXiW3zIPu3BTZTP1kn+5mBLQbYMh65+r0lJReDm6TiSO564gzleUjzV7h3o8A0vzxqv5bJNGRMCA0z39U5Hx5U=
  0
TEXT
  8
0
  6
CONTINUOUS
 10
0.000000
 20
-9.000000
 40
0.200000
  1
$PLWDWGP00T29mVOJ/cKTUCFnkmHYwhBTdzafM7kdkvqtH+Qr5dJU1wPthYxw8C4jxlDTyDfbDPOUagSCED3oVURdCopkfpho29PB30rkEgl49IjSb1FVisyyIV+nkQke+jQqol4QqsSOv3U2CpFjz7Y7EzQStNbJSKIBlRJ8LTEo3xs3g=
  0
TEXT
  8
0
  6
CONTINUOUS
 10
0.000000
 20
-9.250000
 40
0.200000
  1
$PLWDWGzUqb2Dz28s3eiL8JUkZaUlTh2yV6hinTsD8+6VS+jYE+ei8HhMrPGjbgOuJ4WJHZ20558wruZ1VjKQT/TkoHL7YVKJIRGd0x9YbGKL1DHpy4WEYfg3OaP9XoCiU52aXfNN1/d4BB57mXqqZtCeiOxsNI/Frt3bzynFUlkPT/Q8I=
  0
TEXT
  8
0
  6
CONTINUOUS
 10
0.000000
 20
-9.500000
 40
0.200000
  1
$PLWDWGPBfY0Qp3mlyFpJTfTxLcmcaHss8czYFxzfVVPp5Kx5SzuI/d0h8gcbriX6K19aj/WKUwWwdZQZmb2Li5FLhj0rNFFkq6rRQzUc2TimBP/3zybtUBfb5i1z2FjVShMLBpxNYlX4PagDHGjXcLqhIpQABm1cW/e8UtTofBcJE06rc=
  0
TEXT
  8
0
  6
CONTINUOUS
 10
0.000000
 20
-9.750000
 40
0.200000
  1
$PLWDWG7j8z/on+zF6VWASA5DVrbkDqD6NQH2VG0ZHYAOXdn9ZRZc9kRXd8qkuwykRdWbZDCdtDSJqqdC+CrJ+klKzh/9E1fOc9ADQvf0JYdkc5ue/LwnieyMMpDJ/PpmsXlXo4kyHZ1yC03nN6Uh9D0sRJ/uwnmHcchrGXFsqrS9L/Cuc=
  0
TEXT
  8
0
  6
CONTINUOUS
 10
0.000000
 20
-10.000000
 40
0.200000
  1
$PLWDWGj9wph2caWwmQYfYiiqChPcVgFT+ffTj5044g0HCkXGL4f0lhbcrfQIotDbwxw7lNJ7lbbIUGxs8BkRP5TclQT6gfoE6jw8kex3AddR57/LUihAiTUZmTOd7hNsft5i56Q9AbAB+ynSfQJiqWw/pMMDscpO35rDbrl+BEK59oPrI=
  0
TEXT
  8
0
  6
CONTINUOUS
 10
0.000000
 20
-10.250000
 40
0.200000
  1
$PLWDWGsS0FIBmS2iNuXak4tbXN4B0Y+/ALRYGxye380Hs7VnYLomauj/k6uFhHqJJNkR4U0I4JiHFhRm+J2qQA5VdEyO8/r3sXrlF0kmN3b93Ls/UA3TvWWz32KvK33UMsgRBv+HkoMAMRTbTW/DaK8q2tvnuqUmtESXH/w3I3c9xRfv4=
  0
TEXT
  8
0
  6
CONTINUOUS
 10
0.000000
 20
-10.500000
 40
0.200000
  1
$PLWDWGWei+JPbMWGNyOyxC9e2Lm6WrAFhBFK1ZN0gzcmQregQJZjUnqgwBiksys1EILkf2p/uR8Egb+IlCRvwf6pz/b+h5t5kkPulVHukSnt3dYbh1wBZePrvxtbW1jYu3MEQnBCZYd3NxR0DIkBYXxR9mDlyAhzzBukdAh3EPLCe8MMg=
  0
TEXT
  8
0
  6
CONTINUOUS
 10
0.000000
 20
-10.750000
 40
0.200000
  1
$PLWDWGOJBtnNIhRkBZ0SlxQYIsqOz0tdRfTDVA+mHwMRhgshrFvmPWOm4IiXhIsB5XOWu/Sfat/I8XcO0puQJXnhnS6x6/CiOLU9x7GqHlUqAeMGtpDYbxoNZfVJEmyK1CIYLwbTNITTVk+CRmrAHxH8zNm/MAbAxZMUBLEfRBhNMcdck=
  0
TEXT
  8
0
  6
CONTINUOUS
 10
0.000000
 20
-11.000000
 40
0.200000
  1
$PLWDWGuMWAU1y+OJ52Lybs7vjTrD01HVoMpj6h/HsDhfwjzTBE8/5/IIHBJgQKmTCYm8vk9bkP9+9REfam4lila33pcPtxnUE4lDXSjBjZsTV7tWs2H2KBWMpc13KJMaK6kWyIJ/CGdkP+TMFuF1ra7J9lyv7RLkXU7BpvT/Ekdg9iVHs=
  0
TEXT
  8
0
  6
CONTINUOUS
 10
0.000000
 20
-11.250000
 40
0.200000
  1
$PLWDWG7UNalkzjPRnLEYIzkJvIct60oIZJntCOwIwfIxomw7b3yHeNbBWf3n7pDg18tMMfaUvvUjtzrj37AGMF5k93GUItCOqi7mpg1jp/1O1d4O/U5Yk5w5sXQhqvrw+9h1h/jrl/KRXbihdn2/rBB8cg+gZNHqn+CXQD8Hd0bNSKGX4=
  0
TEXT
  8
0
  6
CONTINUOUS
 10
0.000000
 20
-11.500000
 40
0.200000
  1
$PLWDWGoJAeKTECNt1yUWKU7teU6XRbSlUDrsyBMbRKMeZQVs2M7Zzd3VAH0u/a9WvA8gEXH2dBAAksDCeM35sLKhC9s7jPcSW/Xk7CfGlTGKngDQg76jZWLjsNHvp7Im+JLGWEqjyqze3EY7sglvV1fcSRujLw7HIewZg2pJG41atThKk=
  0
TEXT
  8
0
  6
CONTINUOUS
 10
0.000000
 20
-11.750000
 40
0.200000
  1
$PLWDWGCfPOdacdXG3Onn2+Bc00QJgCvUdvJgJ8hjRQJYrJRUDf3nc6PlKRCNOPsT7wywUxEfR7AArIueisc86VtGjYHXi+qBF/5QagqdICqGbTS8cUEUOm0Ob93jzaw66v8YCv60VfHPO+HZvIrE2yfzf8fwGQ0muWT3+7uQ0/me+7DWc=
  0
TEXT
  8
0
  6
CONTINUOUS
 10
0.000000
 20
-12.000000
 40
0.200000
  1
$PLWDWGT+qp8vleFnYRnAw8rKoCvS69j0AqX6lMSq8+a0CbptrEQyvFrA2qc70XPSNzZXai71LHjSQTQWQhHWexCJjxNn97hBfHUUkpn/zJQGZAEAjF7L6uyc76OHTWy1aZ5iwxazv06kRmHwgbf97gEa6OWmTfyMrT39lcP9Scy3iRPcw=
  0
TEXT
  8
0
  6
CONTINUOUS
 10
0.000000
 20
-12.250000
 40
0.200000
  1
$PLWDWG0zkgMyETrsOzMLFSo1jh7CyFXVl0++txHTiR1QO6Z1HnXlEdCy6HxcpHmZbBvfLQQyhYoP2cyrtx2WEa3eQEkG+fFBqT5fCGSsQplRroreITWXTA8vEa/HGnOqm6tWoJq4CmrbxaaZtXAP+4+wDgJ5HlDnXUJzYfFz+xmtmf/qA=
  0
TEXT
  8
0
  6
CONTINUOUS
 10
0.000000
 20
-12.500000
 40
0.200000
  1
$PLWDWGpA/p8klJj/8i56Pap2521oYdTGzOujRuuwA5I7Abc3tjIaw/zyaOXLr9LslZXc5o9jEUDaDKFQ1R6PqU9KFQO7nWZoTCssfsgY36/9odvpsRGV0xyUlTow+NVid7ks5Z0xtIqPLJxL/WdU144x8Mdhael9jpRjKe9fFDkvTuKRs=
  0
TEXT
  8
0
  6
CONTINUOUS
 10
0.000000
 20
-12.750000
 40
0.200000
  1
$PLWDWG7YhermOcsriv0bBgv/NQ8eV7ELH0IDpA978Zz9K3Cl3Zj+o01jQ+QJBUBwfrGwzXENUwM0UiM0AV0P+n5hIdBfSduFR2zy9A1WJIVHeWN8KPql4gwckL9MwNiwgVoqQjo/wW5cslDyhT6W0TjHtQSSL9A1vxDSGhypnC8X1qTJs=
  0
TEXT
  8
0
  6
CONTINUOUS
 10
0.000000
 20
-13.000000
 40
0.200000
  1
$PLWDWGJZY+khrx+ms6ck2sfsRmsD6sQcyYkHfmXAq4cDEJQeaXp23YcVaX6iPjWPEQd8L3VaKi3nV5CIYm8Jcbaxk/ty8Sbihl5NLQtTaZhH/650sY/tH6Wzv0M7MaDctzBpVN7NESIG5fwcclz+fBnzhGBcFrqcPhfIN1Lg8rX/AoAZE=
  0
TEXT
  8
0
  6
CONTINUOUS
 10
0.000000
 20
-13.250000
 40
0.200000
  1
$PLWDWGBF3uI1e5Rjb0H9PV6d3+x/UMNdT88JNKEBnKCDbZon0QkdniOtudu+DsWEJOjWGeabjetsRs3zMkSYTNzVZVmNFITKOhiVQxy/b6LFmiGH29dc+eP1Ii4ty+Hqt6WAHsKKehvuLGziYEZiXjU/opeqxTtVFXWolWU6QvaeMNYKY=
  0
TEXT
  8
0
  6
CONTINUOUS
 10
0.000000
 20
-13.500000
 40
0.200000
  1
$PLWDWGUQh0QQp2hg4nQytpUoBZ9uHw0WArOAnkR5ScA2GLGxXApcAyg39KTlWDPeRYtD3B4I7r8w6VOlrAZjhNKRr2Aviq3XXvPZp1bYoBSq27FwuL1BDkrNf/ltS4DtJkSIbVfrbJlSWS+9qBCbO6w+YcTVr4hMZWU5uqwSweNe67JD4=
  0
TEXT
  8
0
  6
CONTINUOUS
 10
0.000000
 20
-13.750000
 40
0.200000
  1
$PLWDWGJx+v4cRhqAWRpuempFbZFnx658DEVjyNx2l+KWA3pKGDTtP+l7K2xQUhoRZQSdISyquEFsS9O0fWtnH4cRIxQGhXSNy46kMeO7ghPY8oMED2koV6nI8Btn/DGP8n8MrxvWZyWOvb5ETXt3gCks1/Cwg5iedkkPpZihgtzIvie9c=
  0
TEXT
  8
0
  6
CONTINUOUS
 10
0.000000
 20
-14.000000
 40
0.200000
  1
$PLWDWGpvktxDfrlwEBF2pYirGs+xEGHknkDuSaPq342Y+hISs04aA4Byd9sk33CE0NHvAfMGJffGaALoGuX2va4agd7XS8IcY6TtvGZXxth01GnBn+YEGNw16Uij9t+unBTC7r0K/CQYr6IjqZR39QyFyMX4IQ4HHu4RBplECC0o3bEgM=
  0
TEXT
  8
0
  6
CONTINUOUS
 10
0.000000
 20
-14.250000
 40
0.200000
  1
$PLWDWGyxBUT4YfHDjnSNnJwXnoLpmh1+j/lpdqXeE4r89LoEF707rVXAR803S9GwYR4Z43uD+CEHFElPjlifxybAMRe9Yr8IPI3nnr2S4C2e8k38pKVYQpcUNAwuRh9i0l1kNZsX/F3WyWP4I1fPIvNJiCZdMkW41Bejz1fViQ78TF/WA=
  0
TEXT
  8
0
  6
CONTINUOUS
 10
0.000000
 20
-14.500000
 40
0.200000
  1
$PLWDWGSnTKEWQCW4Cn9ewcqA9mPETvnpyfrgqNYKxJzELJlMpLMzt8s8hp7yU7i8lQsFiQMClVPdi+hFMr5bzdBuAz2g7oKDKUfdaGzDAmWqFAJKYuVOWAiN9b8gIXG+I3a7LvsDxTs32CQHFAzEqQsnaxiOdvqp8yVsLMOm6qdc9OWcE=
  0
TEXT
  8
0
  6
CONTINUOUS
 10
0.000000
 20
-14.750000
 40
0.200000
  1
$PLWDWG68KG9FEvDufKwDudOpMIhVCxy8/kYDSqPpK5m0RvrXLcJ0vbxnplN9xH5O0XITCt8sSCBYcyJrpNSRp7QFMljZkt7JcE0CdAVQgYbFT4K1xHNaIYX2IwQOZFC3WcFm00OPEgHnRswzk8OTan/LkKYA+EWUDMKiBuOTpInNFPjcY=
  0
TEXT
  8
0
  6
CONTINUOUS
 10
0.000000
 20
-15.000000
 40
0.200000
  1
$PLWDWG2yFHDxD1ORhtOFDt3g3C2jO3FkR7OkmwzQlwTNut5PRbBCBcJVq+hgfXrQtBTjq8DfHAOW64byjrYDVZhtSz39OyylnJkFHc0yGTnq+t8PzElEUN9PC6RYZt0Gbbzzd+I+bY/9HLn/EnDMzWV5cmJxC5bIjiBt0hWgYceQqO4z4=
  0
TEXT
  8
0
  6
CONTINUOUS
 10
0.000000
 20
-15.250000
 40
0.200000
  1
$PLWDWGKZK/uw8vGm2Rv8o3lmNh6IgEuLBPyNp8FOV2P62kXl8NDvfNFKzcTSgBq8ONmwTuvXfJ8lFbpLZRtez3O4/XEQT1CY0VG/lr2ymEclUERzKIodWykmbSt+DskwU+SJFXzVfnbcAOB5S/qXGJ643+wu2o62nQDLaNzisoRuOqx4k=
  0
TEXT
  8
0
  6
CONTINUOUS
 10
0.000000
 20
-15.500000
 40
0.200000
  1
$PLWDWGfCB0C+gl7R2wdfgejeRkVJHYoFjQURDMIyTkMyPQhcDysa7aK/Y1cYNkr2XGyWOIlVU9HRXwo3tVya3cZzQyLISzHj02Nt/4KEzJ3wBBzATbfNwFv6mJtnnvPAh1ffjiGOPUaU7O4VA1v3ixebCzTDFWdXUqt8d3BorVPRK3m50=
  0
TEXT
  8
0
  6
CONTINUOUS
 10
0.000000
 20
-15.750000
 40
0.200000
  1
$PLWDWGuDFtDD/mufvzAAvT1VB8GtbYasMtl8DI2AWvZlnG5IRiuruK6LwBbPnPPeg0yenV4egx4ujHrvxrM7RFB4MD9voBciULj6MoGEUHVfwoL0ADjUgmwq2eh3g/0BfDwDNAdc2F/u8TwwPrSGMr2Qw74npJx3aBmS8v4knMavZf6ck=
  0
TEXT
  8
0
  6
CONTINUOUS
 10
0.000000
 20
-16.000000
 40
0.200000
  1
$PLWDWGUY4UHZtUHxrfBiuRoya1HNISqNVQB9fXFzv6WeSuXvj38yzomCh632N48dgkZeiUhLb6BLb8G0H5ShKJ/MVAyH1YKbukTCaCEEO5p6/4dGMXTf1OGN5h0qPi2Feys4bhabCBYiYDHr7Jv5TdFKdQqVnWW+NVbzyjTS/NciOjxoQ=
  0
TEXT
  8
0
  6
CONTINUOUS
 10
0.000000
 20
-16.250000
 40
0.200000
  1
$PLWDWG4zNreAQq+G/V+hTLAyJ2wtAfnx6gdK4qhGVxNjfVU7SZCunmKhqZDkYEpQkWCm9GmhsziGyuLj/C3JdQ9v5+m6kG/qIA38rYeR1cyrAjn5xP7aPLzc+IkrW7jxM5I1RgZ61W88yxZ7UNZQlwzCDJNdLdah/Q/OBLUOK+npT2p7c=
  0
TEXT
  8
0
  6
CONTINUOUS
 10
0.000000
 20
-16.500000
 40
0.200000
  1
$PLWDWGL7iaWKtklReGyvhWkQaxLB9ejVFZI+BVG2iOtO/8oJl60KIFGIeafaAog3HDmu5eave7ZXhkkFaqUDAY+VneP9xMBVrYItOgErrC/jw0+7evRxbelXDwDmSndEpMOCdKsUYLDt35hFX8ljhotDY/Muk3HYuLs1pc8dxangP6McY=
  0
TEXT
  8
0
  6
CONTINUOUS
 10
0.000000
 20
-16.750000
 40
0.200000
  1
$PLWDWGJtb2y8Gb26ohl3FARBgIrF52WOgApScKkgyoVHpR63g0xzeg/EzDWkISj8TlcdC1bAJxZfAFjEhDLJPWf5xtZslxLkorxnLJVmhh8QbY8LOefNzTdpxGQJkLBnYRDeZouZWURUonmpTXVymdXNvzr2HYrbzm/co4tQCTKe6/4og=
  0
TEXT
  8
0
  6
CONTINUOUS
 10
0.000000
 20
-17.000000
 40
0.200000
  1
$PLWDWGGgabgpDOY9tAaqiTHH/3a2QPiZLUOW1AsQkIQFsfStwJQe2GweNOMOsqXM28KoM1PbyUxpdGYvkrtmVkny5grIMDKA9yN39lPl8DivE1tI98GdvmWFy8l7KahwDVBljKLwCaMJhbcI6inD6K7n2GcRfdf/2Ta4H35Pba6OKBB5I=
  0
TEXT
  8
0
  6
CONTINUOUS
 10
0.000000
 20
-17.250000
 40
0.200000
  1
$PLWDWGZX4lbvNGkXoMS7kOuCqmx1omoG4JEfAuA+0qa0axP2ep4pV/L7aetKsGnEN3N3EbnydGzLvxf1p4bjr9usy3tfiwDrlYzRadyV5D3TeiiOLwqehT7K5emi+RegOUEtPL2yatuVseKtmXtUS/jDinXw0YxRDf1ABGydQ7ML77IN4=
  0
TEXT
  8
0
  6
CONTINUOUS
 10
0.000000
 20
-17.500000
 40
0.200000
  1
$PLWDWGzK2fmvfk105S8zHalOKZEr7sBlaosLgi8sUaTwNQmVtNmXIIlX5sgqMP01AUQPHsaIZT5Q2lks01TnW+rj1DqcOO5Hxr2xZ55g9gzO+yk5O5zOZdJax+JJBI5f286oCS/CcMvIZW+vCXZUu4bMdtMGdw6W22lgJY7Rz7q3MfkYk=
  0
TEXT
  8
0
  6
CONTINUOUS
 10
0.000000
 20
-17.750000
 40
0.200000
  1
$PLWDWG64q4oXaiY4LopIXspbBSfbFJyRxvRr6fM9N3nISOk5ib8QZ7IdpMayJMmK4uoeP+yr2uo/PsKZjXM5Huq16QQ21B+/mzaS9vDBn/kBSjRkCGzOUFh+RbovzccNBBRxgi1iF74hCI46iOw5VyRKOYG6zwjluY5EntV4YVa5pgIFY=
  0
TEXT
  8
0
  6
CONTINUOUS
 10
0.000000
 20
-18.000000
 40
0.200000
  1
$PLWDWGei+7oV3l9fT4WhN5Ydhn2uQwtevZY1lRJPNGbjsm65rQhAG7NlF6cZmuulBLjKRvw/5KtAIeZ2w5tfFV7eW8R8XRBaOEE8eh1rHvV9wIxGPurE35jGU06yFQjFsGjvAPibGcsajVN1Nfpqc+xGGmw9OvOkeq+UsV3qRb9/yjpYg=
  0
TEXT
  8
0
  6
CONTINUOUS
 10
0.000000
 20
-18.250000
 40
0.200000
  1
$PLWDWGqdU/0fSPmwsWAWz+sZj6OfzZ6KuJipaKt31pSoSzjMmw4Fxyh0lm7u1CE+p483hkP4uDI5nGAdWpnhB9JHJCOB9T51ikDXbQq45Sa1DzwhXQMXofuL73VwhBRriVpsW0J2SrLT0UQDP9qbFVsXOahf0d5ZtaCd1CRSgfonX3hgM=
  0
TEXT
  8
0
  6
CONTINUOUS
 10
0.000000
 20
-18.500000
 40
0.200000
  1
$PLWDWGU7ORrqu9VdrpzyeSOJROnzL/3hY3eSaeNecUNoo2fVy3e/Aba1AKQO6mqrPe31nloiR7oh2YaQok8tNTvkgtFMz+0i0WdmNv3eez9TlYPkQkBS+7uHOWpP/gg4ffiW29HVoktEd1Zwb8J76BSRAzFujRGgTfgD8TUByclR+923E=
  0
TEXT
  8
0
  6
CONTINUOUS
 10
0.000000
 20
-18.750000
 40
0.200000
  1
$PLWDWGqEUcifY7havHNZuYCSYKF2ZLJjLVwyPhYRBRDatTgLGOur7G95/OjM9UdMjVf2lzvlNb+LPP3BSA74M6MWzYJMSxJobDN0ZApRy/rPCaLeJVNrtSmwYwynDwNEmltUSDycYVhuMPrHNBLcd2LAY6C5m434vaNnYNuIo14jvv+hY=
  0
TEXT
  8
0
  6
CONTINUOUS
 10
0.000000
 20
-19.000000
 40
0.200000
  1
$PLWDWGXjcfoPyZ6NRkNbkvOZNs/s93mjbwf54YETVXZTbW1wTVplDAcJJJdfGCTNqAE6l5YF91XMyv3+qSFSbrWNlrdaRsxLZ2jVREqkhFIrjn5H2wZT/EnZ3Zus7Wkw7/DCIBNgJxh3BNDQUN83XZhvoduq65ckMKOVpx/7I6c9eZ4lk=
  0
TEXT
  8
0
  6
CONTINUOUS
 10
0.000000
 20
-19.250000
 40
0.200000
  1
$PLWDWG481ZNqecm7x+ylA2bFqDddeyyMQQkzxv1KZc2/sCl9+pbejfl/57jqqHDxfg7dkxsfm55zbPjzITHehKTIruhzosOfbd+ZZf7bqm2vFDWQz+dUSGQBEhtkks/pNRVYTuDnyQBOmEH3Fvnizw9RJ4yBYBUzRgoHZVVq+Dxr41WGA=
  0
TEXT
  8
0
  6
CONTINUOUS
 10
0.000000
 20
-19.500000
 40
0.200000
  1
$PLWDWG9DIo1Sg7eSDrRoCvlBsNwIAZ5WizxYd9Qa+q1CURpJdOE2pUvE70v79+pbzLSAsJSFxdi/Os/GCnF8BQBYqP6/x+olPFOrQKWblTLgZobIrlbt9TRsCuZkSd8QFRT3feqjnM5nMASpSjdcvcAkCJDRNDLXmB54xRZraORXTmRzc=
  0
TEXT
  8
0
  6
CONTINUOUS
 10
0.000000
 20
-19.750000
 40
0.200000
  1
$PLWDWGUW+0fMalhEcPk7DeNoDGK+5UXi7fqMRoeByqJunvsULtGr4M2z4liPeNc3Zzr2eccgLzTxum5mvS6TZOk5pFQDQQK41A8100IKnGmnGvjLwGBnLqUkIvrNupXxa0z9f/WnDuG4t+30Zd2HSDIIQSRML3m8Bg8ORs8nM4l9/sBxY=
  0
TEXT
  8
0
  6
CONTINUOUS
 10
0.000000
 20
-20.000000
 40
0.200000
  1
$PLWDWGUqWxu07EDy2jYZQdgZMGKhNVM4Ze8hS4QHZpBHHYLvHY3N272jX0IFZsgcMnkEykp6c+R9OaI6tBh8U1hNvk2YErtxwfAyiQsREJhFa/YS01Rl3xnBeQhv/FvkWhj5mA+nRNbJHVBWoLNx3GKLTcO2fpc5Nun4HfTI8bOmbsV3k=
  0
TEXT
  8
0
  6
CONTINUOUS
 10
0.000000
 20
-20.250000
 40
0.200000
  1
$PLWDWGqVKP3Q1BGcQcGqw/RY/h81fthr6px8+lGGmimOev4CQ2pObFEobV3aX+cEwbs0yXLJhNWf+gktuDA3zbU2WYcbiVH04WcmpBnT+lFzPm+5FGYT2yH1IFt8TNx3hNWTlH12HH16hemVZTfP1FDfK19dv/+gMy6un18VyvkhIRxOM=
  0
TEXT
  8
0
  6
CONTINUOUS
 10
0.000000
 20
-20.500000
 40
0.200000
  1
$PLWDWG5dzjSszYYJh+6YBJev7s8m/hlchMc7d3hRYs2jhbX3i4jkpzwVUAlq8lY/0uyOFN8OhwVE1dklIA5W9YjlakZ3Nd9N9i9CcdefqkUZfDU/ZmUbbRse+XPln/M3ZorvGCEIp8zTE/K+bxhVif1xzWnKWQyoCfwhMu68BFNbAYOE8=
  0
TEXT
  8
0
  6
CONTINUOUS
 10
0.000000
 20
-20.750000
 40
0.200000
  1
$PLWDWGByMFfyq6fISdskYsrcU592dDY+XzXHbxw3K8HNUnTkEzT2VJlmyKwa1fyvgEW6/fncs8XVvlFTL08pZ0rcA/bg1FGy6Na7iPfel0mi5f1mPfpOr056D+YU/Y4vHPgGpBCDdOaxG+MbTVcpkAJ/3nNiXqTVsG0CtoLWRHEc8Wq5Y=
  0
TEXT
  8
0
  6
CONTINUOUS
 10
0.000000
 20
-21.000000
 40
0.200000
  1
$PLWDWG8fcj8IjNOehcvjKG9H+zRxgAszj3CWAd+Ht9MqLleJ6NB26YpuhY4gb0ZuwWbY4LQ2CNRxxyANrD7jdjlVmMl9AgC+iZUpjaGkVn6IsiW3I5CRwcPveprtzfTswpUk/i0hsVSbTbhIahM8s2Vl5FlRSD8dO3kHm6Xe/5PEFyYn0=
  0
TEXT
  8
0
  6
CONTINUOUS
 10
0.000000
 20
-21.250000
 40
0.200000
  1
$PLWDWGhuw3US5kH96yqBzrUZ9F4edQVmKcjaYSR3+RhAr2sSSgmPyvJqTHYqYNNlCCs8Be60Hz5mLbzSZlluo5QmPpqM/lULT6suMUU+SWLtlCZVCqN3Eh9jM5CnKcOeup/oUKxzjeLuqifXLnLC6V8WpFxhZTQ/z+9t7PvmY5kxKIUw4=
  0
TEXT
  8
0
  6
CONTINUOUS
 10
0.000000
 20
-21.500000
 40
0.200000
  1
$PLWDWGiOq8pRBfz/FcUC+1UdZ2FIlMFKbOmDFTCw5RU6vJNcbThOfRLOIWzmBtpPBLwpMRzHb1yICeixstKe+g1iAQdBupHJbmBOucH/unxULOu3P7wk9cSIRyNpf3etBB1oniz9N2KVabyAWFPzc+3EbByr+B9vgTDAI7tXMfEp0q84M=
  0
TEXT
  8
0
  6
CONTINUOUS
 10
0.000000
 20
-21.750000
 40
0.200000
  1
$PLWDWGoqXj+eJVAFU5SnAVeOdpSCfWuxUg/B3BBxVRWEmtkiz6jyshjkTxfPMLIF8IBvvOKemT6PmSX4HdmPwENXL7YCiBbII+q9+B0GkuDVoxvxOQJChFq1tvAAl1Opm2Gf0JcXPQsQlpCu5DuIfpa66dy3bmDS86IecWnq99kGDxNmI=
  0
TEXT
  8
0
  6
CONTINUOUS
 10
0.000000
 20
-22.000000
 40
0.200000
  1
$PLWDWGlPUW1wnLTHL6eIyIbjP7c3XcaAk4Za6wC9VYhcqSvzR1Wc7h/QR/1q8bmac8D/pP3qXcj5wqIyiCKQPmomKYRnwyopI+25XlgHAS1+6s5/AvKgtRVT7H4tvRtTzsVZEYwqdp23wRCmz9TnkmZssH29u+1wdWwZajQMN5mXq9Z8w=
  0
TEXT
  8
0
  6
CONTINUOUS
 10
0.000000
 20
-22.250000
 40
0.200000
  1
$PLWDWGq1suVE/3/vlV0uPqES5JxUQEPNXDlmRtw4Xx2Z2PZLW+0MtzWYDW+gBnryFvdEd4SJH4Swlox7H1JX6kzXiWkOtVDSbdIKnlL2irs4tR85mhGwya3bNLJHwrRSVuFpCvmT/oJPxuo1V7iudiPLZXzEcFQl2AiOm/3q/2907A1Pk=
  0
TEXT
  8
0
  6
CONTINUOUS
 10
0.000000
 20
-22.500000
 40
0.200000
  1
$PLWDWGLm4bsQj8JLbic+oXRQZSwJxoONO7eiJkVNF23WgdodRj0aVjwR2NyC45BltRmSqQE2l0QIzCpLPMp5DpyzU79xg8SbSJDbpRt4ZNEO9PhikQ5iuiNI2UI6cpMbPqkQ1GgO+I+a8BrB0Rbscz2SUzumR0avD9QZxP/ina4U+t+w0=
  0
TEXT
  8
0
  6
CONTINUOUS
 10
0.000000
 20
-22.750000
 40
0.200000
  1
$PLWDWGm7s6DD4Ab34NeV3V0WORxSqAkXtD/ErjPj+Uz1tDBwIlruz5q7rNCnll6SikdWzVwtXLTdI+zKyWlevBT7O/ve+FUHD+TdfqrFdH3IIf8fmpnIP++pZSj1J00JbCFOJ27acWtAYszsfwTTFkQQHWKeDthI6YDe7BOn0wFfkqx+Q=
  0
TEXT
  8
0
  6
CONTINUOUS
 10
0.000000
 20
-23.000000
 40
0.200000
  1
$PLWDWGl6qy9QInVGNXjqJE1JZDXrZJTtrI7q4LpUKOSct/bHFWBR4QO3PRHelDSrGOmTYYBu/oub8LoO22YFTuQlxGVWL6dqY5F9W5DVvLw/DR7Mro62MS0i6ck2AgoCzy7QSqh2VWawLgUTzKabluZBBIMp3aypoeP6RSoaxvUGjo2sc=
  0
TEXT
  8
0
  6
CONTINUOUS
 10
0.000000
 20
-23.250000
 40
0.200000
  1
$PLWDWGe0wm27mJ3E31N7mp6IBZqomfRRRGUdHEeP7Dh07Yk0fyDTJUO/M=
  0
ENDBLK
  8
0
  0
ENDSEC
  0
SECTION
  2
ENTITIES
  0
LINE
  8
3
  6
CONTINUOUS
 10
7.415202
 20
53.109627
 11
14.276592
 21
28.038923
  0
LINE
  8
3
  6
CONTINUOUS
 10
42.458221
 20
53.109493
 11
49.319574
 21
28.038923
  0
LINE
  8
3
  6
CONTINUOUS
 10
7.415202
 20
53.109627
 11
42.458221
 21
53.109493
  0
LINE
  8
3
  6
CONTINUOUS
 10
14.276592
 20
28.038923
 11
49.319574
 21
28.038923
  0
LINE
  8
3
  6
ESTILO_TQS_0001
 10
7.833971
 20
51.579493
 11
42.876954
 21
51.579493
  0
LINE
  8
3
  6
ESTILO_TQS_0001
 10
13.857859
 20
29.568923
 11
48.900842
 21
29.568923
  0
LINE
  8
3
  6
CONTINUOUS
 10
12.599080
 20
53.109608
 11
19.460465
 21
28.038923
  0
LINE
  8
3
  6
CONTINUOUS
 10
7.726234
 20
53.109626
 11
14.587625
 21
28.038923
  0
LINE
  8
3
  6
ESTILO_TQS_0001
 10
41.686597
 20
52.898314
 11
48.490155
 21
28.038923
  0
LINE
  8
3
  6
CONTINUOUS
 10
41.686597
 20
52.898314
 11
42.458221
 21
53.109493
  0
LINE
  8
3
  6
CONTINUOUS
 10
57.076607
 20
46.253772
 11
57.076607
 21
48.153772
  0
LINE
  8
3
  6
CONTINUOUS
 10
57.076607
 20
48.153772
 11
57.376607
 21
48.153772
  0
LINE
  8
3
  6
CONTINUOUS
 10
57.376607
 20
48.153772
 11
57.376607
 21
46.253772
  0
LINE
  8
3
  6
CONTINUOUS
 10
63.010337
 20
17.573600
 11
61.424194
 21
17.573600
  0
LINE
  8
3
  6
CONTINUOUS
 10
61.424194
 20
17.573600
 11
61.424194
 21
16.373600
  0
LINE
  8
3
  6
CONTINUOUS
 10
61.424194
 20
16.373600
 11
62.770337
 21
16.373600
  0
LINE
  8
3
  6
CONTINUOUS
 10
62.770337
 20
16.373600
 11
62.770337
 21
15.261210
  0
LINE
  8
3
  6
CONTINUOUS
 10
87.416602
 20
16.660674
 11
85.830337
 21
16.660674
  0
LINE
  8
3
  6
CONTINUOUS
 10
87.416602
 20
15.060674
 11
86.070337
 21
15.060674
  0
LINE
  8
3
  6
CONTINUOUS
 10
85.830337
 20
16.660674
 11
85.830337
 21
14.148820
  0
LINE
  8
3
  6
CONTINUOUS
 10
86.070337
 20
15.060674
 11
86.070337
 21
14.148820
  0
LINE
  8
3
  6
CONTINUOUS
 10
63.010337
 20
17.573600
 11
63.010337
 21
15.261210
  0
LINE
  8
3
  6
CONTINUOUS
 10
87.416602
 20
16.660674
 11
87.416602
 21
15.060674
  0
LINE
  8
3
  6
CONTINUOUS
 10
61.670337
 20
16.373600
 11
61.670337
 21
15.261210
  0
LINE
  8
3
  6
CONTINUOUS
 10
61.770337
 20
16.373600
 11
61.770337
 21
15.261210
  0
LINE
  8
3
  6
CONTINUOUS
 10
62.670337
 20
16.373600
 11
62.670337
 21
15.261210
  0
LINE
  8
11
  6
ESTILO_TQS_0003
 10
62.220337
 20
16.373600
 11
62.220337
 21
15.261210
  0
LINE
  8
3
  6
CONTINUOUS
 10
86.170337
 20
15.060674
 11
86.170337
 21
14.148820
  0
LINE
  8
3
  6
CONTINUOUS
 10
87.070337
 20
15.060674
 11
87.070337
 21
14.148820
  0
LINE
  8
11
  6
ESTILO_TQS_0003
 10
86.620337
 20
15.060674
 11
86.620337
 21
14.148820
  0
LINE
  8
3
  6
CONTINUOUS
 10
87.170337
 20
15.060674
 11
87.170337
 21
14.148820
  0
LINE
  8
5
  6
ESTILO_TQS_0004
 10
11.804083
 20
33.585192
 11
50.011741
 21
33.585192
  0
POLYLINE
  8
8
  6
CONTINUOUS
 66
     1
  0
VERTEX
  8
8
  6
CONTINUOUS
 10
10.011812
 20
33.794982
  0
VERTEX
  8
8
  6
CONTINUOUS
 10
10.011812
 20
33.585192
  0
VERTEX
  8
8
  6
CONTINUOUS
 10
11.480341
 20
33.585192
  0
VERTEX
  8
8
  6
CONTINUOUS
 10
11.480341
 20
33.794982
  0
VERTEX
  8
8
  6
CONTINUOUS
 10
10.011812
 20
33.794982
  0
SEQEND
  8
8
  6
CONTINUOUS
  0
POLYLINE
  8
8
  6
CONTINUOUS
 66
     1
  0
VERTEX
  8
8
  6
CONTINUOUS
 10
11.594290
 20
33.794982
  0
VERTEX
  8
8
  6
CONTINUOUS
 10
11.594290
 20
33.585192
  0
VERTEX
  8
8
  6
CONTINUOUS
 10
11.804083
 20
33.585192
  0
VERTEX
  8
8
  6
CONTINUOUS
 10
11.804083
 20
33.794982
  0
VERTEX
  8
8
  6
CONTINUOUS
 10
11.594290
 20
33.794982
  0
SEQEND
  8
8
  6
CONTINUOUS
  0
POLYLINE
  8
5
  6
CONTINUOUS
 66
     1
  0
VERTEX
  8
5
  6
CONTINUOUS
 10
10.749337
 20
34.211104
  0
VERTEX
  8
5
  6
CONTINUOUS
 10
10.313988
 20
33.942485
  0
VERTEX
  8
5
  6
CONTINUOUS
 10
11.184692
 20
33.942485
  0
VERTEX
  8
5
  6
CONTINUOUS
 10
10.749337
 20
34.211104
  0
SEQEND
  8
5
  6
CONTINUOUS
  0
TEXT
  8
5
  6
CONTINUOUS
 10
10.602777
 20
34.342253
 40
0.399960
  1
1
  0
POLYLINE
  8
8
  6
CONTINUOUS
 66
     1
  0
VERTEX
  8
8
  6
CONTINUOUS
 10
51.804013
 20
33.794982
  0
VERTEX
  8
8
  6
CONTINUOUS
 10
51.804013
 20
33.585192
  0
VERTEX
  8
8
  6
CONTINUOUS
 10
50.335483
 20
33.585192
  0
VERTEX
  8
8
  6
CONTINUOUS
 10
50.335483
 20
33.794982
  0
VERTEX
  8
8
  6
CONTINUOUS
 10
51.804013
 20
33.794982
  0
SEQEND
  8
8
  6
CONTINUOUS
  0
POLYLINE
  8
8
  6
CONTINUOUS
 66
     1
  0
VERTEX
  8
8
  6
CONTINUOUS
 10
50.221534
 20
33.794982
  0
VERTEX
  8
8
  6
CONTINUOUS
 10
50.221534
 20
33.585192
  0
VERTEX
  8
8
  6
CONTINUOUS
 10
50.011741
 20
33.585192
  0
VERTEX
  8
8
  6
CONTINUOUS
 10
50.011741
 20
33.794982
  0
VERTEX
  8
8
  6
CONTINUOUS
 10
50.221534
 20
33.794982
  0
SEQEND
  8
8
  6
CONTINUOUS
  0
POLYLINE
  8
5
  6
CONTINUOUS
 66
     1
  0
VERTEX
  8
5
  6
CONTINUOUS
 10
51.066488
 20
34.211104
  0
VERTEX
  8
5
  6
CONTINUOUS
 10
51.501837
 20
33.942485
  0
VERTEX
  8
5
  6
CONTINUOUS
 10
50.631132
 20
33.942485
  0
VERTEX
  8
5
  6
CONTINUOUS
 10
51.066488
 20
34.211104
  0
SEQEND
  8
5
  6
CONTINUOUS
  0
TEXT
  8
5
  6
CONTINUOUS
 10
50.952566
 20
34.336470
 40
0.399960
  1
1
  0
LINE
  8
5
  6
ESTILO_TQS_0004
 10
27.941162
 20
54.114229
 11
35.289119
 21
27.265620
  0
POLYLINE
  8
8
  6
CONTINUOUS
 66
     1
  0
VERTEX
  8
8
  6
CONTINUOUS
 10
27.670398
 20
55.898308
  0
VERTEX
  8
8
  6
CONTINUOUS
 10
27.468049
 20
55.842929
  0
VERTEX
  8
8
  6
CONTINUOUS
 10
27.855702
 20
54.426488
  0
VERTEX
  8
8
  6
CONTINUOUS
 10
28.058052
 20
54.481867
  0
VERTEX
  8
8
  6
CONTINUOUS
 10
27.670398
 20
55.898308
  0
SEQEND
  8
8
  6
CONTINUOUS
  0
POLYLINE
  8
8
  6
CONTINUOUS
 66
     1
  0
VERTEX
  8
8
  6
CONTINUOUS
 10
28.088131
 20
54.371960
  0
VERTEX
  8
8
  6
CONTINUOUS
 10
27.885782
 20
54.316581
  0
VERTEX
  8
8
  6
CONTINUOUS
 10
27.941162
 20
54.114229
  0
VERTEX
  8
8
  6
CONTINUOUS
 10
28.143511
 20
54.169608
  0
VERTEX
  8
8
  6
CONTINUOUS
 10
28.088131
 20
54.371960
  0
SEQEND
  8
8
  6
CONTINUOUS
  0
POLYLINE
  8
5
  6
CONTINUOUS
 66
     1
  0
VERTEX
  8
5
  6
CONTINUOUS
 10
28.266447
 20
55.296788
  0
VERTEX
  8
5
  6
CONTINUOUS
 10
27.892436
 20
55.645787
  0
VERTEX
  8
5
  6
CONTINUOUS
 10
28.122279
 20
54.805967
  0
VERTEX
  8
5
  6
CONTINUOUS
 10
28.266447
 20
55.296788
  0
SEQEND
  8
5
  6
CONTINUOUS
  0
POLYLINE
  8
8
  6
CONTINUOUS
 66
     1
  0
VERTEX
  8
8
  6
CONTINUOUS
 10
35.964581
 20
25.592300
  0
VERTEX
  8
8
  6
CONTINUOUS
 10
35.762232
 20
25.536921
  0
VERTEX
  8
8
  6
CONTINUOUS
 10
35.374579
 20
26.953361
  0
VERTEX
  8
8
  6
CONTINUOUS
 10
35.576928
 20
27.008740
  0
VERTEX
  8
8
  6
CONTINUOUS
 10
35.964581
 20
25.592300
  0
SEQEND
  8
8
  6
CONTINUOUS
  0
POLYLINE
  8
8
  6
CONTINUOUS
 66
     1
  0
VERTEX
  8
8
  6
CONTINUOUS
 10
35.546848
 20
27.118647
  0
VERTEX
  8
8
  6
CONTINUOUS
 10
35.344499
 20
27.063268
  0
VERTEX
  8
8
  6
CONTINUOUS
 10
35.289119
 20
27.265620
  0
VERTEX
  8
8
  6
CONTINUOUS
 10
35.491468
 20
27.320999
  0
VERTEX
  8
8
  6
CONTINUOUS
 10
35.546848
 20
27.118647
  0
SEQEND
  8
8
  6
CONTINUOUS
  0
POLYLINE
  8
5
  6
CONTINUOUS
 66
     1
  0
VERTEX
  8
5
  6
CONTINUOUS
 10
36.171256
 20
26.413510
  0
VERTEX
  8
5
  6
CONTINUOUS
 10
36.027086
 20
25.922695
  0
VERTEX
  8
5
  6
CONTINUOUS
 10
35.797242
 20
26.762515
  0
VERTEX
  8
5
  6
CONTINUOUS
 10
36.171256
 20
26.413510
  0
SEQEND
  8
5
  6
CONTINUOUS
  0
TEXT
  8
8
  6
CONTINUOUS
 10
7.398424
 20
54.939532
 40
0.499950
  1
PLANTA
  0
LINE
  8
3
  6
CONTINUOUS
 10
7.726271
 20
53.109493
 11
7.436912
 21
53.030300
  0
LINE
  8
3
  6
CONTINUOUS
 10
14.528851
 20
28.253552
 11
14.239492
 21
28.174359
  0
POLYLINE
  8
3
  6
CONTINUOUS
 66
     1
  0
VERTEX
  8
3
  6
CONTINUOUS
 10
62.197077
 20
44.090372
  0
VERTEX
  8
3
  6
CONTINUOUS
 10
62.197077
 20
45.890372
  0
VERTEX
  8
3
  6
CONTINUOUS
 10
57.140007
 20
45.890372
  0
VERTEX
  8
3
  6
CONTINUOUS
 10
57.140007
 20
45.496997
  0
SEQEND
  8
3
  6
CONTINUOUS
  0
POLYLINE
  8
3
  6
CONTINUOUS
 66
     1
  0
VERTEX
  8
3
  6
CONTINUOUS
 10
61.061536
 20
45.379052
  0
VERTEX
  8
3
  6
CONTINUOUS
 10
92.056190
 20
45.671616
  0
VERTEX
  8
3
  6
CONTINUOUS
 10
92.056190
 20
45.071616
  0
SEQEND
  8
3
  6
CONTINUOUS
  0
POLYLINE
  8
3
  6
CONTINUOUS
 66
     1
  0
VERTEX
  8
3
  6
CONTINUOUS
 10
92.059590
 20
44.206886
  0
VERTEX
  8
3
  6
CONTINUOUS
 10
62.269737
 20
43.917265
  0
VERTEX
  8
3
  6
CONTINUOUS
 10
57.136607
 20
45.501604
  0
SEQEND
  8
3
  6
CONTINUOUS
  0
POLYLINE
  8
3
  6
CONTINUOUS
 66
     1
  0
VERTEX
  8
3
  6
CONTINUOUS
 10
93.556190
 20
44.204066
  0
VERTEX
  8
3
  6
CONTINUOUS
 10
93.556190
 20
44.380666
  0
VERTEX
  8
3
  6
CONTINUOUS
 10
90.656190
 20
44.380666
  0
SEQEND
  8
3
  6
CONTINUOUS
  0
POLYLINE
  8
3
  6
CONTINUOUS
 66
     1
  0
VERTEX
  8
3
  6
CONTINUOUS
 10
93.382990
 20
44.240666
  0
VERTEX
  8
3
  6
CONTINUOUS
 10
93.382990
 20
45.380666
  0
VERTEX
  8
3
  6
CONTINUOUS
 10
93.556190
 20
45.380666
  0
VERTEX
  8
3
  6
CONTINUOUS
 10
93.556190
 20
44.207466
  0
VERTEX
  8
3
  6
CONTINUOUS
 10
91.656190
 20
44.207466
  0
SEQEND
  8
3
  6
CONTINUOUS
  0
POLYLINE
  8
3
  6
CONTINUOUS
 66
     1
  0
VERTEX
  8
3
  6
CONTINUOUS
 10
91.667924
 20
45.904771
  0
VERTEX
  8
3
  6
CONTINUOUS
 10
91.826603
 20
47.396355
  0
VERTEX
  8
3
  6
CONTINUOUS
 10
92.056190
 20
47.396355
  0
VERTEX
  8
3
  6
CONTINUOUS
 10
92.056190
 20
44.206853
  0
VERTEX
  8
3
  6
CONTINUOUS
 10
91.382990
 20
44.200308
  0
VERTEX
  8
3
  6
CONTINUOUS
 10
91.382990
 20
45.999770
  0
VERTEX
  8
3
  6
CONTINUOUS
 10
92.013798
 20
46.900925
  0
SEQEND
  8
3
  6
CONTINUOUS
  0
CIRCLE
  8
7
  6
CONTINUOUS
 10
92.036190
 20
47.376355
 40
0.020000
  0
CIRCLE
  8
7
  6
CONTINUOUS
 10
91.846603
 20
47.376355
 40
0.020000
  0
CIRCLE
  8
7
  6
CONTINUOUS
 10
91.402990
 20
45.979770
 40
0.020000
  0
CIRCLE
  8
7
  6
CONTINUOUS
 10
91.750907
 20
46.476794
 40
0.020000
  0
CIRCLE
  8
7
  6
CONTINUOUS
 10
92.036190
 20
46.476794
 40
0.020000
  0
CIRCLE
  8
7
  6
CONTINUOUS
 10
92.036190
 20
46.926574
 40
0.020000
  0
CIRCLE
  8
7
  6
CONTINUOUS
 10
91.798755
 20
46.926574
 40
0.020000
  0
CIRCLE
  8
7
  6
CONTINUOUS
 10
92.036190
 20
45.959770
 40
0.020000
  0
CIRCLE
  8
7
  6
CONTINUOUS
 10
93.402990
 20
45.360666
 40
0.020000
  0
CIRCLE
  8
7
  6
CONTINUOUS
 10
93.536190
 20
45.360666
 40
0.020000
  0
CIRCLE
  8
7
  6
CONTINUOUS
 10
93.536190
 20
44.227466
 40
0.020000
  0
CIRCLE
  8
7
  6
CONTINUOUS
 10
93.402990
 20
44.227466
 40
0.020000
  0
CIRCLE
  8
7
  6
CONTINUOUS
 10
92.978579
 20
44.227466
 40
0.020000
  0
CIRCLE
  8
7
  6
CONTINUOUS
 10
92.545404
 20
44.227466
 40
0.020000
  0
CIRCLE
  8
7
  6
CONTINUOUS
 10
92.978579
 20
44.360666
 40
0.020000
  0
CIRCLE
  8
7
  6
CONTINUOUS
 10
92.545404
 20
44.360666
 40
0.020000
  0
CIRCLE
  8
7
  6
CONTINUOUS
 10
91.236225
 20
45.644064
 40
0.020000
  0
CIRCLE
  8
7
  6
CONTINUOUS
 10
90.836243
 20
45.640289
 40
0.020000
  0
CIRCLE
  8
7
  6
CONTINUOUS
 10
90.436261
 20
45.636513
 40
0.020000
  0
CIRCLE
  8
7
  6
CONTINUOUS
 10
90.036279
 20
45.632738
 40
0.020000
  0
CIRCLE
  8
7
  6
CONTINUOUS
 10
89.636297
 20
45.628962
 40
0.020000
  0
CIRCLE
  8
7
  6
CONTINUOUS
 10
89.236315
 20
45.625186
 40
0.020000
  0
CIRCLE
  8
7
  6
CONTINUOUS
 10
88.836332
 20
45.621411
 40
0.020000
  0
CIRCLE
  8
7
  6
CONTINUOUS
 10
88.436350
 20
45.617635
 40
0.020000
  0
CIRCLE
  8
7
  6
CONTINUOUS
 10
88.036368
 20
45.613860
 40
0.020000
  0
CIRCLE
  8
7
  6
CONTINUOUS
 10
87.636386
 20
45.610084
 40
0.020000
  0
CIRCLE
  8
7
  6
CONTINUOUS
 10
87.236404
 20
45.606309
 40
0.020000
  0
CIRCLE
  8
7
  6
CONTINUOUS
 10
86.836421
 20
45.602533
 40
0.020000
  0
CIRCLE
  8
7
  6
CONTINUOUS
 10
86.436439
 20
45.598757
 40
0.020000
  0
CIRCLE
  8
7
  6
CONTINUOUS
 10
86.036457
 20
45.594982
 40
0.020000
  0
CIRCLE
  8
7
  6
CONTINUOUS
 10
85.636475
 20
45.591206
 40
0.020000
  0
CIRCLE
  8
7
  6
CONTINUOUS
 10
85.236493
 20
45.587431
 40
0.020000
  0
CIRCLE
  8
7
  6
CONTINUOUS
 10
84.836511
 20
45.583655
 40
0.020000
  0
CIRCLE
  8
7
  6
CONTINUOUS
 10
84.436528
 20
45.579879
 40
0.020000
  0
CIRCLE
  8
7
  6
CONTINUOUS
 10
84.036546
 20
45.576104
 40
0.020000
  0
CIRCLE
  8
7
  6
CONTINUOUS
 10
83.636564
 20
45.572328
 40
0.020000
  0
CIRCLE
  8
7
  6
CONTINUOUS
 10
83.236582
 20
45.568553
 40
0.020000
  0
CIRCLE
  8
7
  6
CONTINUOUS
 10
82.836600
 20
45.564777
 40
0.020000
  0
CIRCLE
  8
7
  6
CONTINUOUS
 10
82.436617
 20
45.561002
 40
0.020000
  0
CIRCLE
  8
7
  6
CONTINUOUS
 10
82.036635
 20
45.557226
 40
0.020000
  0
CIRCLE
  8
7
  6
CONTINUOUS
 10
81.636653
 20
45.553450
 40
0.020000
  0
CIRCLE
  8
7
  6
CONTINUOUS
 10
81.236671
 20
45.549675
 40
0.020000
  0
CIRCLE
  8
7
  6
CONTINUOUS
 10
80.836689
 20
45.545899
 40
0.020000
  0
CIRCLE
  8
7
  6
CONTINUOUS
 10
80.436707
 20
45.542124
 40
0.020000
  0
CIRCLE
  8
7
  6
CONTINUOUS
 10
80.036724
 20
45.538348
 40
0.020000
  0
CIRCLE
  8
7
  6
CONTINUOUS
 10
79.636742
 20
45.534572
 40
0.020000
  0
CIRCLE
  8
7
  6
CONTINUOUS
 10
79.236760
 20
45.530797
 40
0.020000
  0
CIRCLE
  8
7
  6
CONTINUOUS
 10
78.836778
 20
45.527021
 40
0.020000
  0
CIRCLE
  8
7
  6
CONTINUOUS
 10
78.436796
 20
45.523246
 40
0.020000
  0
CIRCLE
  8
7
  6
CONTINUOUS
 10
78.036813
 20
45.519470
 40
0.020000
  0
CIRCLE
  8
7
  6
CONTINUOUS
 10
77.636831
 20
45.515694
 40
0.020000
  0
CIRCLE
  8
7
  6
CONTINUOUS
 10
77.236849
 20
45.511919
 40
0.020000
  0
CIRCLE
  8
7
  6
CONTINUOUS
 10
76.836867
 20
45.508143
 40
0.020000
  0
CIRCLE
  8
7
  6
CONTINUOUS
 10
76.436885
 20
45.504368
 40
0.020000
  0
CIRCLE
  8
7
  6
CONTINUOUS
 10
76.036903
 20
45.500592
 40
0.020000
  0
CIRCLE
  8
7
  6
CONTINUOUS
 10
75.636920
 20
45.496817
 40
0.020000
  0
CIRCLE
  8
7
  6
CONTINUOUS
 10
75.236938
 20
45.493041
 40
0.020000
  0
CIRCLE
  8
7
  6
CONTINUOUS
 10
74.836956
 20
45.489265
 40
0.020000
  0
CIRCLE
  8
7
  6
CONTINUOUS
 10
74.436974
 20
45.485490
 40
0.020000
  0
CIRCLE
  8
7
  6
CONTINUOUS
 10
74.036992
 20
45.481714
 40
0.020000
  0
CIRCLE
  8
7
  6
CONTINUOUS
 10
73.637009
 20
45.477939
 40
0.020000
  0
CIRCLE
  8
7
  6
CONTINUOUS
 10
73.237027
 20
45.474163
 40
0.020000
  0
CIRCLE
  8
7
  6
CONTINUOUS
 10
72.837045
 20
45.470387
 40
0.020000
  0
CIRCLE
  8
7
  6
CONTINUOUS
 10
72.437063
 20
45.466612
 40
0.020000
  0
CIRCLE
  8
7
  6
CONTINUOUS
 10
72.037081
 20
45.462836
 40
0.020000
  0
CIRCLE
  8
7
  6
CONTINUOUS
 10
71.637099
 20
45.459061
 40
0.020000
  0
CIRCLE
  8
7
  6
CONTINUOUS
 10
71.237116
 20
45.455285
 40
0.020000
  0
CIRCLE
  8
7
  6
CONTINUOUS
 10
70.837134
 20
45.451510
 40
0.020000
  0
CIRCLE
  8
7
  6
CONTINUOUS
 10
70.437152
 20
45.447734
 40
0.020000
  0
CIRCLE
  8
7
  6
CONTINUOUS
 10
70.037170
 20
45.443958
 40
0.020000
  0
CIRCLE
  8
7
  6
CONTINUOUS
 10
69.637188
 20
45.440183
 40
0.020000
  0
CIRCLE
  8
7
  6
CONTINUOUS
 10
69.237206
 20
45.436407
 40
0.020000
  0
CIRCLE
  8
7
  6
CONTINUOUS
 10
68.837223
 20
45.432632
 40
0.020000
  0
CIRCLE
  8
7
  6
CONTINUOUS
 10
68.437241
 20
45.428856
 40
0.020000
  0
CIRCLE
  8
7
  6
CONTINUOUS
 10
68.037259
 20
45.425080
 40
0.020000
  0
CIRCLE
  8
7
  6
CONTINUOUS
 10
67.637277
 20
45.421305
 40
0.020000
  0
CIRCLE
  8
7
  6
CONTINUOUS
 10
67.237295
 20
45.417529
 40
0.020000
  0
CIRCLE
  8
7
  6
CONTINUOUS
 10
66.837312
 20
45.413754
 40
0.020000
  0
CIRCLE
  8
7
  6
CONTINUOUS
 10
66.437330
 20
45.409978
 40
0.020000
  0
CIRCLE
  8
7
  6
CONTINUOUS
 10
66.037348
 20
45.406203
 40
0.020000
  0
CIRCLE
  8
7
  6
CONTINUOUS
 10
65.637366
 20
45.402427
 40
0.020000
  0
CIRCLE
  8
7
  6
CONTINUOUS
 10
65.237384
 20
45.398651
 40
0.020000
  0
CIRCLE
  8
7
  6
CONTINUOUS
 10
64.837402
 20
45.394876
 40
0.020000
  0
CIRCLE
  8
7
  6
CONTINUOUS
 10
64.437419
 20
45.391100
 40
0.020000
  0
CIRCLE
  8
7
  6
CONTINUOUS
 10
64.037437
 20
45.387325
 40
0.020000
  0
TEXT
  8
3
  6
CONTINUOUS
 10
62.226978
 20
54.015393
 40
0.250000
  1
ESC. - 1:50
  0
TEXT
  8
8
  6
CONTINUOUS
 10
57.259486
 20
54.015393
 40
0.500000
  1
SEÇÃO 1-1
  0
TEXT
  8
3
  6
CONTINUOUS
 10
11.043407
 20
54.939532
 40
0.250000
  1
ESC. - 1:50
  0
CIRCLE
  8
7
  6
CONTINUOUS
 10
63.637455
 20
45.383549
 40
0.020000
  0
CIRCLE
  8
7
  6
CONTINUOUS
 10
63.237473
 20
45.379773
 40
0.020000
  0
CIRCLE
  8
7
  6
CONTINUOUS
 10
62.837491
 20
45.375998
 40
0.020000
  0
CIRCLE
  8
7
  6
CONTINUOUS
 10
62.437508
 20
45.372222
 40
0.020000
  0
CIRCLE
  8
7
  6
CONTINUOUS
 10
92.036657
 20
44.177396
 40
0.020000
  0
CIRCLE
  8
7
  6
CONTINUOUS
 10
91.896663
 20
44.176075
 40
0.020000
  0
CIRCLE
  8
7
  6
CONTINUOUS
 10
91.756669
 20
44.174753
 40
0.020000
  0
CIRCLE
  8
7
  6
CONTINUOUS
 10
91.616675
 20
44.173432
 40
0.020000
  0
CIRCLE
  8
7
  6
CONTINUOUS
 10
91.476682
 20
44.172110
 40
0.020000
  0
CIRCLE
  8
7
  6
CONTINUOUS
 10
91.336688
 20
44.170789
 40
0.020000
  0
CIRCLE
  8
7
  6
CONTINUOUS
 10
91.196694
 20
44.169467
 40
0.020000
  0
CIRCLE
  8
7
  6
CONTINUOUS
 10
91.056700
 20
44.168146
 40
0.020000
  0
CIRCLE
  8
7
  6
CONTINUOUS
 10
90.916707
 20
44.166824
 40
0.020000
  0
CIRCLE
  8
7
  6
CONTINUOUS
 10
90.776713
 20
44.165503
 40
0.020000
  0
CIRCLE
  8
7
  6
CONTINUOUS
 10
90.636719
 20
44.164181
 40
0.020000
  0
CIRCLE
  8
7
  6
CONTINUOUS
 10
90.496725
 20
44.162860
 40
0.020000
  0
CIRCLE
  8
7
  6
CONTINUOUS
 10
90.356731
 20
44.161539
 40
0.020000
  0
CIRCLE
  8
7
  6
CONTINUOUS
 10
90.216738
 20
44.160217
 40
0.020000
  0
CIRCLE
  8
7
  6
CONTINUOUS
 10
90.076744
 20
44.158896
 40
0.020000
  0
CIRCLE
  8
7
  6
CONTINUOUS
 10
89.936750
 20
44.157574
 40
0.020000
  0
CIRCLE
  8
7
  6
CONTINUOUS
 10
89.796756
 20
44.156253
 40
0.020000
  0
CIRCLE
  8
7
  6
CONTINUOUS
 10
89.656763
 20
44.154931
 40
0.020000
  0
CIRCLE
  8
7
  6
CONTINUOUS
 10
89.516769
 20
44.153610
 40
0.020000
  0
CIRCLE
  8
7
  6
CONTINUOUS
 10
89.376775
 20
44.152288
 40
0.020000
  0
CIRCLE
  8
7
  6
CONTINUOUS
 10
89.236781
 20
44.150967
 40
0.020000
  0
CIRCLE
  8
7
  6
CONTINUOUS
 10
89.096788
 20
44.149645
 40
0.020000
  0
CIRCLE
  8
7
  6
CONTINUOUS
 10
88.956794
 20
44.148324
 40
0.020000
  0
CIRCLE
  8
7
  6
CONTINUOUS
 10
88.816800
 20
44.147003
 40
0.020000
  0
CIRCLE
  8
7
  6
CONTINUOUS
 10
88.676806
 20
44.145681
 40
0.020000
  0
CIRCLE
  8
7
  6
CONTINUOUS
 10
88.536813
 20
44.144360
 40
0.020000
  0
CIRCLE
  8
7
  6
CONTINUOUS
 10
88.396819
 20
44.143038
 40
0.020000
  0
CIRCLE
  8
7
  6
CONTINUOUS
 10
88.256825
 20
44.141717
 40
0.020000
  0
CIRCLE
  8
7
  6
CONTINUOUS
 10
88.116831
 20
44.140395
 40
0.020000
  0
CIRCLE
  8
7
  6
CONTINUOUS
 10
87.976838
 20
44.139074
 40
0.020000
  0
CIRCLE
  8
7
  6
CONTINUOUS
 10
87.836844
 20
44.137752
 40
0.020000
  0
CIRCLE
  8
7
  6
CONTINUOUS
 10
87.636853
 20
44.135865
 40
0.020000
  0
CIRCLE
  8
7
  6
CONTINUOUS
 10
87.436862
 20
44.133977
 40
0.020000
  0
CIRCLE
  8
7
  6
CONTINUOUS
 10
87.236870
 20
44.132089
 40
0.020000
  0
CIRCLE
  8
7
  6
CONTINUOUS
 10
87.036879
 20
44.130201
 40
0.020000
  0
CIRCLE
  8
7
  6
CONTINUOUS
 10
86.836888
 20
44.128313
 40
0.020000
  0
CIRCLE
  8
7
  6
CONTINUOUS
 10
86.636897
 20
44.126426
 40
0.020000
  0
CIRCLE
  8
7
  6
CONTINUOUS
 10
86.436906
 20
44.124538
 40
0.020000
  0
CIRCLE
  8
7
  6
CONTINUOUS
 10
86.236915
 20
44.122650
 40
0.020000
  0
CIRCLE
  8
7
  6
CONTINUOUS
 10
86.036924
 20
44.120762
 40
0.020000
  0
CIRCLE
  8
7
  6
CONTINUOUS
 10
85.836933
 20
44.118874
 40
0.020000
  0
CIRCLE
  8
7
  6
CONTINUOUS
 10
85.636942
 20
44.116987
 40
0.020000
  0
CIRCLE
  8
7
  6
CONTINUOUS
 10
85.436951
 20
44.115099
 40
0.020000
  0
CIRCLE
  8
7
  6
CONTINUOUS
 10
85.236960
 20
44.113211
 40
0.020000
  0
CIRCLE
  8
7
  6
CONTINUOUS
 10
85.036968
 20
44.111323
 40
0.020000
  0
CIRCLE
  8
7
  6
CONTINUOUS
 10
84.836977
 20
44.109435
 40
0.020000
  0
CIRCLE
  8
7
  6
CONTINUOUS
 10
84.636986
 20
44.107548
 40
0.020000
  0
CIRCLE
  8
7
  6
CONTINUOUS
 10
84.436995
 20
44.105660
 40
0.020000
  0
CIRCLE
  8
7
  6
CONTINUOUS
 10
84.237004
 20
44.103772
 40
0.020000
  0
CIRCLE
  8
7
  6
CONTINUOUS
 10
84.037013
 20
44.101884
 40
0.020000
  0
CIRCLE
  8
7
  6
CONTINUOUS
 10
83.837022
 20
44.099997
 40
0.020000
  0
CIRCLE
  8
7
  6
CONTINUOUS
 10
83.637031
 20
44.098109
 40
0.020000
  0
CIRCLE
  8
7
  6
CONTINUOUS
 10
83.437040
 20
44.096221
 40
0.020000
  0
CIRCLE
  8
7
  6
CONTINUOUS
 10
83.237049
 20
44.094333
 40
0.020000
  0
CIRCLE
  8
7
  6
CONTINUOUS
 10
83.037058
 20
44.092445
 40
0.020000
  0
CIRCLE
  8
7
  6
CONTINUOUS
 10
82.837067
 20
44.090558
 40
0.020000
  0
CIRCLE
  8
7
  6
CONTINUOUS
 10
82.637075
 20
44.088670
 40
0.020000
  0
CIRCLE
  8
7
  6
CONTINUOUS
 10
82.437084
 20
44.086782
 40
0.020000
  0
CIRCLE
  8
7
  6
CONTINUOUS
 10
82.237093
 20
44.084894
 40
0.020000
  0
CIRCLE
  8
7
  6
CONTINUOUS
 10
82.037102
 20
44.083006
 40
0.020000
  0
CIRCLE
  8
7
  6
CONTINUOUS
 10
81.837111
 20
44.081119
 40
0.020000
  0
CIRCLE
  8
7
  6
CONTINUOUS
 10
81.637120
 20
44.079231
 40
0.020000
  0
CIRCLE
  8
7
  6
CONTINUOUS
 10
81.437129
 20
44.077343
 40
0.020000
  0
CIRCLE
  8
7
  6
CONTINUOUS
 10
81.237138
 20
44.075455
 40
0.020000
  0
CIRCLE
  8
7
  6
CONTINUOUS
 10
81.037147
 20
44.073567
 40
0.020000
  0
CIRCLE
  8
7
  6
CONTINUOUS
 10
80.837156
 20
44.071680
 40
0.020000
  0
CIRCLE
  8
7
  6
CONTINUOUS
 10
80.637165
 20
44.069792
 40
0.020000
  0
CIRCLE
  8
7
  6
CONTINUOUS
 10
80.437173
 20
44.067904
 40
0.020000
  0
CIRCLE
  8
7
  6
CONTINUOUS
 10
80.237182
 20
44.066016
 40
0.020000
  0
CIRCLE
  8
7
  6
CONTINUOUS
 10
80.037191
 20
44.064128
 40
0.020000
  0
CIRCLE
  8
7
  6
CONTINUOUS
 10
79.837200
 20
44.062241
 40
0.020000
  0
CIRCLE
  8
7
  6
CONTINUOUS
 10
79.637209
 20
44.060353
 40
0.020000
  0
CIRCLE
  8
7
  6
CONTINUOUS
 10
79.437218
 20
44.058465
 40
0.020000
  0
CIRCLE
  8
7
  6
CONTINUOUS
 10
79.237227
 20
44.056577
 40
0.020000
  0
CIRCLE
  8
7
  6
CONTINUOUS
 10
79.037236
 20
44.054690
 40
0.020000
  0
CIRCLE
  8
7
  6
CONTINUOUS
 10
78.837245
 20
44.052802
 40
0.020000
  0
CIRCLE
  8
7
  6
CONTINUOUS
 10
78.637254
 20
44.050914
 40
0.020000
  0
CIRCLE
  8
7
  6
CONTINUOUS
 10
78.437263
 20
44.049026
 40
0.020000
  0
CIRCLE
  8
7
  6
CONTINUOUS
 10
78.237271
 20
44.047138
 40
0.020000
  0
CIRCLE
  8
7
  6
CONTINUOUS
 10
78.037280
 20
44.045251
 40
0.020000
  0
CIRCLE
  8
7
  6
CONTINUOUS
 10
77.837289
 20
44.043363
 40
0.020000
  0
CIRCLE
  8
7
  6
CONTINUOUS
 10
77.637298
 20
44.041475
 40
0.020000
  0
CIRCLE
  8
7
  6
CONTINUOUS
 10
77.437307
 20
44.039587
 40
0.020000
  0
CIRCLE
  8
7
  6
CONTINUOUS
 10
77.237316
 20
44.037699
 40
0.020000
  0
CIRCLE
  8
7
  6
CONTINUOUS
 10
77.037325
 20
44.035812
 40
0.020000
  0
CIRCLE
  8
7
  6
CONTINUOUS
 10
76.837334
 20
44.033924
 40
0.020000
  0
CIRCLE
  8
7
  6
CONTINUOUS
 10
76.637343
 20
44.032036
 40
0.020000
  0
CIRCLE
  8
7
  6
CONTINUOUS
 10
76.437352
 20
44.030148
 40
0.020000
  0
CIRCLE
  8
7
  6
CONTINUOUS
 10
76.237361
 20
44.028260
 40
0.020000
  0
CIRCLE
  8
7
  6
CONTINUOUS
 10
76.037369
 20
44.026373
 40
0.020000
  0
CIRCLE
  8
7
  6
CONTINUOUS
 10
75.837378
 20
44.024485
 40
0.020000
  0
CIRCLE
  8
7
  6
CONTINUOUS
 10
75.637387
 20
44.022597
 40
0.020000
  0
CIRCLE
  8
7
  6
CONTINUOUS
 10
75.437396
 20
44.020709
 40
0.020000
  0
CIRCLE
  8
7
  6
CONTINUOUS
 10
75.237405
 20
44.018821
 40
0.020000
  0
CIRCLE
  8
7
  6
CONTINUOUS
 10
75.037414
 20
44.016934
 40
0.020000
  0
CIRCLE
  8
7
  6
CONTINUOUS
 10
74.837423
 20
44.015046
 40
0.020000
  0
CIRCLE
  8
7
  6
CONTINUOUS
 10
74.637432
 20
44.013158
 40
0.020000
  0
CIRCLE
  8
7
  6
CONTINUOUS
 10
74.437441
 20
44.011270
 40
0.020000
  0
CIRCLE
  8
7
  6
CONTINUOUS
 10
74.237450
 20
44.009382
 40
0.020000
  0
CIRCLE
  8
7
  6
CONTINUOUS
 10
74.037459
 20
44.007495
 40
0.020000
  0
CIRCLE
  8
7
  6
CONTINUOUS
 10
73.837467
 20
44.005607
 40
0.020000
  0
CIRCLE
  8
7
  6
CONTINUOUS
 10
73.637476
 20
44.003719
 40
0.020000
  0
CIRCLE
  8
7
  6
CONTINUOUS
 10
73.437485
 20
44.001831
 40
0.020000
  0
CIRCLE
  8
7
  6
CONTINUOUS
 10
73.237494
 20
43.999944
 40
0.020000
  0
CIRCLE
  8
7
  6
CONTINUOUS
 10
73.037503
 20
43.998056
 40
0.020000
  0
CIRCLE
  8
7
  6
CONTINUOUS
 10
72.837512
 20
43.996168
 40
0.020000
  0
CIRCLE
  8
7
  6
CONTINUOUS
 10
72.637521
 20
43.994280
 40
0.020000
  0
CIRCLE
  8
7
  6
CONTINUOUS
 10
72.437530
 20
43.992392
 40
0.020000
  0
CIRCLE
  8
7
  6
CONTINUOUS
 10
72.237539
 20
43.990505
 40
0.020000
  0
CIRCLE
  8
7
  6
CONTINUOUS
 10
72.037548
 20
43.988617
 40
0.020000
  0
CIRCLE
  8
7
  6
CONTINUOUS
 10
71.837557
 20
43.986729
 40
0.020000
  0
CIRCLE
  8
7
  6
CONTINUOUS
 10
71.637565
 20
43.984841
 40
0.020000
  0
CIRCLE
  8
7
  6
CONTINUOUS
 10
71.437574
 20
43.982953
 40
0.020000
  0
CIRCLE
  8
7
  6
CONTINUOUS
 10
71.237583
 20
43.981066
 40
0.020000
  0
CIRCLE
  8
7
  6
CONTINUOUS
 10
71.037592
 20
43.979178
 40
0.020000
  0
CIRCLE
  8
7
  6
CONTINUOUS
 10
70.837601
 20
43.977290
 40
0.020000
  0
CIRCLE
  8
7
  6
CONTINUOUS
 10
70.637610
 20
43.975402
 40
0.020000
  0
CIRCLE
  8
7
  6
CONTINUOUS
 10
70.437619
 20
43.973514
 40
0.020000
  0
CIRCLE
  8
7
  6
CONTINUOUS
 10
70.237628
 20
43.971627
 40
0.020000
  0
CIRCLE
  8
7
  6
CONTINUOUS
 10
70.037637
 20
43.969739
 40
0.020000
  0
CIRCLE
  8
7
  6
CONTINUOUS
 10
69.837646
 20
43.967851
 40
0.020000
  0
CIRCLE
  8
7
  6
CONTINUOUS
 10
69.637655
 20
43.965963
 40
0.020000
  0
CIRCLE
  8
7
  6
CONTINUOUS
 10
69.437663
 20
43.964075
 40
0.020000
  0
CIRCLE
  8
7
  6
CONTINUOUS
 10
69.237672
 20
43.962188
 40
0.020000
  0
CIRCLE
  8
7
  6
CONTINUOUS
 10
69.037681
 20
43.960300
 40
0.020000
  0
CIRCLE
  8
7
  6
CONTINUOUS
 10
68.837690
 20
43.958412
 40
0.020000
  0
CIRCLE
  8
7
  6
CONTINUOUS
 10
68.637699
 20
43.956524
 40
0.020000
  0
CIRCLE
  8
7
  6
CONTINUOUS
 10
68.437708
 20
43.954637
 40
0.020000
  0
CIRCLE
  8
7
  6
CONTINUOUS
 10
68.237717
 20
43.952749
 40
0.020000
  0
CIRCLE
  8
7
  6
CONTINUOUS
 10
68.037726
 20
43.950861
 40
0.020000
  0
CIRCLE
  8
7
  6
CONTINUOUS
 10
67.837735
 20
43.948973
 40
0.020000
  0
CIRCLE
  8
7
  6
CONTINUOUS
 10
66.437797
 20
43.935759
 40
0.020000
  0
CIRCLE
  8
7
  6
CONTINUOUS
 10
66.297803
 20
43.934437
 40
0.020000
  0
CIRCLE
  8
7
  6
CONTINUOUS
 10
66.157810
 20
43.933116
 40
0.020000
  0
CIRCLE
  8
7
  6
CONTINUOUS
 10
66.017816
 20
43.931794
 40
0.020000
  0
CIRCLE
  8
7
  6
CONTINUOUS
 10
65.877822
 20
43.930473
 40
0.020000
  0
CIRCLE
  8
7
  6
CONTINUOUS
 10
65.737828
 20
43.929151
 40
0.020000
  0
CIRCLE
  8
7
  6
CONTINUOUS
 10
65.597835
 20
43.927830
 40
0.020000
  0
CIRCLE
  8
7
  6
CONTINUOUS
 10
65.457841
 20
43.926508
 40
0.020000
  0
CIRCLE
  8
7
  6
CONTINUOUS
 10
65.317847
 20
43.925187
 40
0.020000
  0
CIRCLE
  8
7
  6
CONTINUOUS
 10
65.177853
 20
43.923865
 40
0.020000
  0
CIRCLE
  8
7
  6
CONTINUOUS
 10
65.037859
 20
43.922544
 40
0.020000
  0
CIRCLE
  8
7
  6
CONTINUOUS
 10
64.897866
 20
43.921223
 40
0.020000
  0
CIRCLE
  8
7
  6
CONTINUOUS
 10
64.757872
 20
43.919901
 40
0.020000
  0
CIRCLE
  8
7
  6
CONTINUOUS
 10
64.617878
 20
43.918580
 40
0.020000
  0
CIRCLE
  8
7
  6
CONTINUOUS
 10
64.477884
 20
43.917258
 40
0.020000
  0
CIRCLE
  8
7
  6
CONTINUOUS
 10
64.337891
 20
43.915937
 40
0.020000
  0
CIRCLE
  8
7
  6
CONTINUOUS
 10
64.197897
 20
43.914615
 40
0.020000
  0
CIRCLE
  8
7
  6
CONTINUOUS
 10
64.057903
 20
43.913294
 40
0.020000
  0
CIRCLE
  8
7
  6
CONTINUOUS
 10
63.917909
 20
43.911972
 40
0.020000
  0
CIRCLE
  8
7
  6
CONTINUOUS
 10
63.777916
 20
43.910651
 40
0.020000
  0
CIRCLE
  8
7
  6
CONTINUOUS
 10
63.637922
 20
43.909329
 40
0.020000
  0
CIRCLE
  8
7
  6
CONTINUOUS
 10
63.497928
 20
43.908008
 40
0.020000
  0
CIRCLE
  8
7
  6
CONTINUOUS
 10
63.357934
 20
43.906687
 40
0.020000
  0
CIRCLE
  8
7
  6
CONTINUOUS
 10
63.217941
 20
43.905365
 40
0.020000
  0
CIRCLE
  8
7
  6
CONTINUOUS
 10
63.077947
 20
43.904044
 40
0.020000
  0
CIRCLE
  8
7
  6
CONTINUOUS
 10
62.937953
 20
43.902722
 40
0.020000
  0
CIRCLE
  8
7
  6
CONTINUOUS
 10
62.797959
 20
43.901401
 40
0.020000
  0
CIRCLE
  8
7
  6
CONTINUOUS
 10
62.657965
 20
43.900079
 40
0.020000
  0
CIRCLE
  8
7
  6
CONTINUOUS
 10
62.517972
 20
43.898758
 40
0.020000
  0
CIRCLE
  8
7
  6
CONTINUOUS
 10
62.377978
 20
43.897436
 40
0.020000
  0
CIRCLE
  8
7
  6
CONTINUOUS
 10
62.237984
 20
43.896115
 40
0.020000
  0
CIRCLE
  8
7
  6
CONTINUOUS
 10
67.637744
 20
43.947085
 40
0.020000
  0
CIRCLE
  8
7
  6
CONTINUOUS
 10
67.437753
 20
43.945198
 40
0.020000
  0
CIRCLE
  8
7
  6
CONTINUOUS
 10
67.237761
 20
43.943310
 40
0.020000
  0
CIRCLE
  8
7
  6
CONTINUOUS
 10
67.037770
 20
43.941422
 40
0.020000
  0
CIRCLE
  8
7
  6
CONTINUOUS
 10
66.837779
 20
43.939534
 40
0.020000
  0
CIRCLE
  8
7
  6
CONTINUOUS
 10
66.637788
 20
43.937646
 40
0.020000
  0
LINE
  8
4
  6
CONTINUOUS
 10
87.851005
 20
42.637480
 11
92.050818
 21
42.677124
  0
LINE
  8
4
  6
CONTINUOUS
 10
87.837788
 20
44.037757
 11
87.852421
 21
42.487487
  0
LINE
  8
4
  6
CONTINUOUS
 10
92.037601
 20
44.077400
 11
92.052234
 21
42.527131
  0
LINE
  8
3
  6
CONTINUOUS
 10
87.851005
 20
42.637480
 11
88.098548
 21
42.672450
  0
LINE
  8
3
  6
CONTINUOUS
 10
87.851005
 20
42.637480
 11
88.099164
 21
42.607190
  0
LINE
  8
3
  6
CONTINUOUS
 10
92.050818
 20
42.677124
 11
91.803276
 21
42.642154
  0
LINE
  8
3
  6
CONTINUOUS
 10
92.050818
 20
42.677124
 11
91.802660
 21
42.707415
  0
LINE
  8
4
  6
CONTINUOUS
 10
87.651014
 20
42.635593
 11
66.651950
 21
42.437374
  0
LINE
  8
4
  6
CONTINUOUS
 10
87.637797
 20
44.035869
 11
87.652430
 21
42.485599
  0
LINE
  8
4
  6
CONTINUOUS
 10
66.638732
 20
43.837651
 11
66.653366
 21
42.287381
  0
LINE
  8
3
  6
CONTINUOUS
 10
87.651014
 20
42.635593
 11
87.403472
 21
42.600623
  0
LINE
  8
3
  6
CONTINUOUS
 10
87.651014
 20
42.635593
 11
87.402856
 21
42.665883
  0
LINE
  8
3
  6
CONTINUOUS
 10
66.651950
 20
42.437374
 11
66.899492
 21
42.472344
  0
LINE
  8
3
  6
CONTINUOUS
 10
66.651950
 20
42.437374
 11
66.900108
 21
42.407084
  0
LINE
  8
4
  6
CONTINUOUS
 10
62.252146
 20
42.395842
 11
66.451959
 21
42.435486
  0
LINE
  8
4
  6
CONTINUOUS
 10
62.238928
 20
43.796119
 11
62.253562
 21
42.245848
  0
LINE
  8
4
  6
CONTINUOUS
 10
66.438741
 20
43.835763
 11
66.453375
 21
42.285493
  0
LINE
  8
3
  6
CONTINUOUS
 10
62.252146
 20
42.395842
 11
62.499688
 21
42.430811
  0
LINE
  8
3
  6
CONTINUOUS
 10
62.252146
 20
42.395842
 11
62.500304
 21
42.365551
  0
LINE
  8
3
  6
CONTINUOUS
 10
66.451959
 20
42.435486
 11
66.204417
 21
42.400517
  0
LINE
  8
3
  6
CONTINUOUS
 10
66.451959
 20
42.435486
 11
66.203801
 21
42.465777
  0
CIRCLE
  8
7
  6
CONTINUOUS
 10
62.104211
 20
43.937405
 40
0.020000
  0
CIRCLE
  8
7
  6
CONTINUOUS
 10
61.970439
 20
43.978694
 40
0.020000
  0
CIRCLE
  8
7
  6
CONTINUOUS
 10
61.836666
 20
44.019984
 40
0.020000
  0
CIRCLE
  8
7
  6
CONTINUOUS
 10
61.702893
 20
44.061273
 40
0.020000
  0
CIRCLE
  8
7
  6
CONTINUOUS
 10
61.569120
 20
44.102563
 40
0.020000
  0
CIRCLE
  8
7
  6
CONTINUOUS
 10
61.435347
 20
44.143852
 40
0.020000
  0
CIRCLE
  8
7
  6
CONTINUOUS
 10
61.301574
 20
44.185142
 40
0.020000
  0
CIRCLE
  8
7
  6
CONTINUOUS
 10
61.167801
 20
44.226431
 40
0.020000
  0
CIRCLE
  8
7
  6
CONTINUOUS
 10
61.034029
 20
44.267721
 40
0.020000
  0
CIRCLE
  8
7
  6
CONTINUOUS
 10
60.842925
 20
44.326706
 40
0.020000
  0
CIRCLE
  8
7
  6
CONTINUOUS
 10
60.651821
 20
44.385691
 40
0.020000
  0
CIRCLE
  8
7
  6
CONTINUOUS
 10
60.460716
 20
44.444676
 40
0.020000
  0
CIRCLE
  8
7
  6
CONTINUOUS
 10
60.269612
 20
44.503661
 40
0.020000
  0
CIRCLE
  8
7
  6
CONTINUOUS
 10
60.078508
 20
44.562646
 40
0.020000
  0
CIRCLE
  8
7
  6
CONTINUOUS
 10
59.887404
 20
44.621631
 40
0.020000
  0
CIRCLE
  8
7
  6
CONTINUOUS
 10
59.696300
 20
44.680617
 40
0.020000
  0
CIRCLE
  8
7
  6
CONTINUOUS
 10
59.505196
 20
44.739602
 40
0.020000
  0
CIRCLE
  8
7
  6
CONTINUOUS
 10
59.314092
 20
44.798587
 40
0.020000
  0
CIRCLE
  8
7
  6
CONTINUOUS
 10
59.122988
 20
44.857572
 40
0.020000
  0
CIRCLE
  8
7
  6
CONTINUOUS
 10
58.931884
 20
44.916557
 40
0.020000
  0
CIRCLE
  8
7
  6
CONTINUOUS
 10
58.740780
 20
44.975542
 40
0.020000
  0
CIRCLE
  8
7
  6
CONTINUOUS
 10
58.549676
 20
45.034527
 40
0.020000
  0
CIRCLE
  8
7
  6
CONTINUOUS
 10
58.358572
 20
45.093512
 40
0.020000
  0
CIRCLE
  8
7
  6
CONTINUOUS
 10
58.167468
 20
45.152497
 40
0.020000
  0
CIRCLE
  8
7
  6
CONTINUOUS
 10
57.976364
 20
45.211482
 40
0.020000
  0
CIRCLE
  8
7
  6
CONTINUOUS
 10
57.785260
 20
45.270467
 40
0.020000
  0
CIRCLE
  8
7
  6
CONTINUOUS
 10
57.594156
 20
45.329452
 40
0.020000
  0
CIRCLE
  8
7
  6
CONTINUOUS
 10
57.403052
 20
45.388438
 40
0.020000
  0
CIRCLE
  8
7
  6
CONTINUOUS
 10
57.211948
 20
45.447423
 40
0.020000
  0
LINE
  8
4
  6
CONTINUOUS
 10
61.637118
 20
42.424084
 11
60.566936
 21
42.754400
  0
LINE
  8
4
  6
CONTINUOUS
 10
62.074719
 20
43.841852
 11
61.592880
 21
42.280756
  0
LINE
  8
4
  6
CONTINUOUS
 10
61.004536
 20
44.172169
 11
60.522697
 21
42.611072
  0
LINE
  8
3
  6
CONTINUOUS
 10
61.637118
 20
42.424084
 11
61.390658
 21
42.466004
  0
LINE
  8
3
  6
CONTINUOUS
 10
61.637118
 20
42.424084
 11
61.409906
 21
42.528365
  0
LINE
  8
3
  6
CONTINUOUS
 10
60.566936
 20
42.754400
 11
60.813396
 21
42.712480
  0
LINE
  8
3
  6
CONTINUOUS
 10
60.566936
 20
42.754400
 11
60.794148
 21
42.650120
  0
LINE
  8
4
  6
CONTINUOUS
 10
60.375832
 20
42.813385
 11
56.744855
 21
43.934102
  0
LINE
  8
4
  6
CONTINUOUS
 10
60.813432
 20
44.231154
 11
60.331593
 21
42.670057
  0
LINE
  8
4
  6
CONTINUOUS
 10
57.182455
 20
45.351871
 11
56.700616
 21
43.790774
  0
LINE
  8
3
  6
CONTINUOUS
 10
60.375832
 20
42.813385
 11
60.129371
 21
42.855306
  0
LINE
  8
3
  6
CONTINUOUS
 10
60.375832
 20
42.813385
 11
60.148619
 21
42.917666
  0
LINE
  8
3
  6
CONTINUOUS
 10
56.744855
 20
43.934102
 11
56.991315
 21
43.892182
  0
LINE
  8
3
  6
CONTINUOUS
 10
56.744855
 20
43.934102
 11
56.972067
 21
43.829821
  0
CIRCLE
  8
7
  6
CONTINUOUS
 10
62.177077
 20
45.870372
 40
0.020000
  0
CIRCLE
  8
7
  6
CONTINUOUS
 10
61.777077
 20
45.870372
 40
0.020000
  0
CIRCLE
  8
7
  6
CONTINUOUS
 10
61.377077
 20
45.870372
 40
0.020000
  0
CIRCLE
  8
7
  6
CONTINUOUS
 10
60.977077
 20
45.870372
 40
0.020000
  0
CIRCLE
  8
7
  6
CONTINUOUS
 10
60.577077
 20
45.870372
 40
0.020000
  0
CIRCLE
  8
7
  6
CONTINUOUS
 10
60.177077
 20
45.870372
 40
0.020000
  0
CIRCLE
  8
7
  6
CONTINUOUS
 10
59.777077
 20
45.870372
 40
0.020000
  0
CIRCLE
  8
7
  6
CONTINUOUS
 10
59.377077
 20
45.870372
 40
0.020000
  0
CIRCLE
  8
7
  6
CONTINUOUS
 10
58.977077
 20
45.870372
 40
0.020000
  0
CIRCLE
  8
7
  6
CONTINUOUS
 10
58.577077
 20
45.870372
 40
0.020000
  0
CIRCLE
  8
7
  6
CONTINUOUS
 10
58.177077
 20
45.870372
 40
0.020000
  0
CIRCLE
  8
7
  6
CONTINUOUS
 10
57.777077
 20
45.870372
 40
0.020000
  0
CIRCLE
  8
7
  6
CONTINUOUS
 10
57.377077
 20
45.870372
 40
0.020000
  0
LINE
  8
4
  6
CONTINUOUS
 10
57.377077
 20
47.326363
 11
62.177077
 21
47.326363
  0
LINE
  8
4
  6
CONTINUOUS
 10
62.177077
 20
45.970372
 11
62.177077
 21
47.476363
  0
LINE
  8
3
  6
CONTINUOUS
 10
57.377077
 20
47.326363
 11
57.624938
 21
47.358994
  0
LINE
  8
3
  6
CONTINUOUS
 10
57.377077
 20
47.326363
 11
57.624938
 21
47.293731
  0
LINE
  8
3
  6
CONTINUOUS
 10
62.177077
 20
47.326363
 11
61.929216
 21
47.293731
  0
LINE
  8
3
  6
CONTINUOUS
 10
62.177077
 20
47.326363
 11
61.929216
 21
47.358994
  0
LINE
  8
4
  6
CONTINUOUS
 10
62.423212
 20
46.886793
 11
91.221929
 21
47.158636
  0
LINE
  8
4
  6
CONTINUOUS
 10
62.436565
 20
45.472218
 11
62.421796
 21
47.036787
  0
LINE
  8
4
  6
CONTINUOUS
 10
91.235282
 20
45.744060
 11
91.220513
 21
47.308629
  0
LINE
  8
3
  6
CONTINUOUS
 10
62.423212
 20
46.886793
 11
62.670754
 21
46.921763
  0
LINE
  8
3
  6
CONTINUOUS
 10
62.423212
 20
46.886793
 11
62.671370
 21
46.856503
  0
LINE
  8
3
  6
CONTINUOUS
 10
91.221929
 20
47.158636
 11
90.974387
 21
47.123666
  0
LINE
  8
3
  6
CONTINUOUS
 10
91.221929
 20
47.158636
 11
90.973771
 21
47.188926
  0
LINE
  8
4
  6
CONTINUOUS
 10
93.402990
 20
44.227466
 11
93.402990
 21
43.246675
  0
LINE
  8
4
  6
CONTINUOUS
 10
93.402990
 20
43.246675
 11
94.999541
 21
43.246675
  0
LINE
  8
4
  6
CONTINUOUS
 10
93.536190
 20
44.227466
 11
93.536190
 21
43.246675
  0
LINE
  8
4
  6
CONTINUOUS
 10
92.545404
 20
44.360666
 11
92.545404
 21
42.588851
  0
LINE
  8
4
  6
CONTINUOUS
 10
92.545404
 20
42.588851
 11
95.099541
 21
42.588851
  0
LINE
  8
4
  6
CONTINUOUS
 10
92.978579
 20
44.360666
 11
92.978579
 21
42.588851
  0
LINE
  8
4
  6
CONTINUOUS
 10
93.402990
 20
45.360666
 11
93.402990
 21
46.341457
  0
LINE
  8
4
  6
CONTINUOUS
 10
93.402990
 20
46.341457
 11
94.999541
 21
46.341457
  0
LINE
  8
4
  6
CONTINUOUS
 10
93.536190
 20
45.360666
 11
93.536190
 21
46.341457
  0
LINE
  8
4
  6
CONTINUOUS
 10
92.036190
 20
45.959770
 11
92.607019
 21
46.434933
  0
LINE
  8
4
  6
CONTINUOUS
 10
92.036190
 20
46.476794
 11
92.607019
 21
46.951957
  0
LINE
  8
4
  6
CONTINUOUS
 10
92.036190
 20
46.926574
 11
92.607019
 21
47.401738
  0
LINE
  8
4
  6
CONTINUOUS
 10
92.036190
 20
47.376355
 11
92.607019
 21
47.851518
  0
LINE
  8
4
  6
CONTINUOUS
 10
90.832160
 20
46.434933
 11
91.402990
 21
45.959770
  0
LINE
  8
4
  6
CONTINUOUS
 10
90.832160
 20
47.241566
 11
91.750907
 21
46.476794
  0
LINE
  8
4
  6
CONTINUOUS
 10
90.832160
 20
47.731176
 11
91.798755
 21
46.926574
  0
LINE
  8
4
  6
CONTINUOUS
 10
90.832160
 20
48.220786
 11
91.846603
 21
47.376355
  0
LINE
  8
4
  6
CONTINUOUS
 10
92.607019
 20
46.434933
 11
92.607019
 21
47.851518
  0
LINE
  8
4
  6
CONTINUOUS
 10
90.832160
 20
46.434933
 11
90.832160
 21
48.220786
  0
POLYLINE
  8
7
  6
CONTINUOUS
 66
     1
  0
VERTEX
  8
7
  6
CONTINUOUS
 10
62.197077
 20
49.969731
  0
VERTEX
  8
7
  6
CONTINUOUS
 10
62.197077
 20
51.769731
  0
VERTEX
  8
7
  6
CONTINUOUS
 10
57.140007
 20
51.769731
  0
VERTEX
  8
7
  6
CONTINUOUS
 10
57.140007
 20
51.376356
  0
SEQEND
  8
7
  6
CONTINUOUS
  0
POLYLINE
  8
7
  6
CONTINUOUS
 66
     1
  0
VERTEX
  8
7
  6
CONTINUOUS
 10
61.061536
 20
49.395551
  0
VERTEX
  8
7
  6
CONTINUOUS
 10
92.056190
 20
49.688115
  0
VERTEX
  8
7
  6
CONTINUOUS
 10
92.056190
 20
49.088115
  0
SEQEND
  8
7
  6
CONTINUOUS
  0
POLYLINE
  8
7
  6
CONTINUOUS
 66
     1
  0
VERTEX
  8
7
  6
CONTINUOUS
 10
92.059590
 20
40.848122
  0
VERTEX
  8
7
  6
CONTINUOUS
 10
62.269737
 20
40.558501
  0
VERTEX
  8
7
  6
CONTINUOUS
 10
57.136607
 20
42.142840
  0
SEQEND
  8
7
  6
CONTINUOUS
  0
LINE
  8
3
  6
ESTILO_TQS_0001
 10
43.702350
 20
53.109493
 11
50.563704
 21
28.038923
  0
LINE
  8
3
  6
CONTINUOUS
 10
44.117060
 20
53.109493
 11
50.978414
 21
28.038923
  0
LINE
  8
3
  6
CONTINUOUS
 10
49.319574
 20
28.038923
 11
50.978414
 21
28.038923
  0
LINE
  8
3
  6
CONTINUOUS
 10
42.458221
 20
53.109493
 11
44.117060
 21
53.109493
  0
LINE
  8
7
  6
CONTINUOUS
 10
11.497234
 20
38.413388
 11
46.420216
 21
38.413388
  0
LINE
  8
7
  6
ESTILO_TQS_0001
 10
13.896411
 20
43.823387
 11
44.939553
 21
43.823387
  0
POLYLINE
  8
7
  6
ESTILO_TQS_0001
 66
     1
  0
VERTEX
  8
7
  6
ESTILO_TQS_0001
 10
9.614520
 20
45.300874
  0
VERTEX
  8
7
  6
ESTILO_TQS_0001
 10
14.673980
 20
45.300874
  0
SEQEND
  8
7
  6
ESTILO_TQS_0001
  0
POLYLINE
  8
7
  6
ESTILO_TQS_0001
 66
     1
  0
VERTEX
  8
7
  6
ESTILO_TQS_0001
 10
47.172907
 20
41.724511
  0
VERTEX
  8
7
  6
ESTILO_TQS_0001
 10
44.172907
 20
41.724511
  0
SEQEND
  8
7
  6
ESTILO_TQS_0001
  0
POLYLINE
  8
7
  6
CONTINUOUS
 66
     1
  0
VERTEX
  8
7
  6
CONTINUOUS
 10
47.538135
 20
40.390041
  0
VERTEX
  8
7
  6
CONTINUOUS
 10
45.538135
 20
40.390041
  0
SEQEND
  8
7
  6
CONTINUOUS
  0
LINE
  8
7
  6
CONTINUOUS
 10
11.664211
 20
53.049612
 11
18.492755
 21
28.098923
  0
LINE
  8
7
  6
CONTINUOUS
 10
8.865715
 20
53.049622
 11
15.694262
 21
28.098923
  0
LINE
  8
7
  6
ESTILO_TQS_0001
 10
10.114882
 20
53.049617
 11
16.943428
 21
28.098923
  0
LINE
  8
7
  6
CONTINUOUS
 10
14.522599
 20
53.049612
 11
21.351144
 21
28.098923
  0
LINE
  8
7
  6
CONTINUOUS
 10
23.275492
 20
53.049612
 11
30.104036
 21
28.098923
  0
LINE
  8
7
  6
CONTINUOUS
 10
39.854403
 20
53.049612
 11
46.682948
 21
28.098923
  0
LINE
  8
7
  6
CONTINUOUS
 10
43.149482
 20
53.049612
 11
49.978026
 21
28.098923
  0
TEXT
  8
5
  6
CONTINUOUS
 10
59.193559
 20
41.225395
 40
0.180000
 50
342.847174
  1
 269 
  0
TEXT
  8
5
  6
CONTINUOUS
 10
74.905571
 20
40.849450
 40
0.180000
 50
0.557000
  1
91 N1 %%c 12.5 C/12 C=COR
  0
TEXT
  8
5
  6
CONTINUOUS
 10
92.326190
 20
49.028115
 40
0.180000
 50
90.000000
  1
 30 
  0
TEXT
  8
5
  6
CONTINUOUS
 10
57.050007
 20
51.213044
 40
0.180000
 50
90.000000
  1
 20 
  0
TEXT
  8
5
  6
CONTINUOUS
 10
59.065975
 20
51.386773
 40
0.180000
 50
0.000000
  1
 253 
  0
TEXT
  8
5
  6
CONTINUOUS
 10
62.467077
 20
50.509731
 40
0.180000
 50
90.000000
  1
 90 
  0
TEXT
  8
5
  6
CONTINUOUS
 10
58.250820
 20
51.932141
 40
0.180000
  1
104 N3 %%c 10 C/12 C=363
  0
POLYLINE
  8
7
  6
CONTINUOUS
 66
     1
  0
VERTEX
  8
7
  6
CONTINUOUS
 10
93.556190
 20
48.256470
  0
VERTEX
  8
7
  6
CONTINUOUS
 10
93.556190
 20
48.533070
  0
VERTEX
  8
7
  6
CONTINUOUS
 10
90.556190
 20
48.533070
  0
SEQEND
  8
7
  6
CONTINUOUS
  0
POLYLINE
  8
7
  6
CONTINUOUS
 66
     1
  0
VERTEX
  8
7
  6
CONTINUOUS
 10
93.382990
 20
40.229876
  0
VERTEX
  8
7
  6
CONTINUOUS
 10
93.382990
 20
41.429595
  0
VERTEX
  8
7
  6
CONTINUOUS
 10
93.556190
 20
41.429595
  0
VERTEX
  8
7
  6
CONTINUOUS
 10
93.556190
 20
40.156395
  0
VERTEX
  8
7
  6
CONTINUOUS
 10
91.656190
 20
40.156395
  0
SEQEND
  8
7
  6
CONTINUOUS
  0
POLYLINE
  8
7
  6
CONTINUOUS
 66
     1
  0
VERTEX
  8
7
  6
CONTINUOUS
 10
96.682544
 20
45.904771
  0
VERTEX
  8
7
  6
CONTINUOUS
 10
96.841223
 20
47.396355
  0
VERTEX
  8
7
  6
CONTINUOUS
 10
97.070810
 20
47.396355
  0
VERTEX
  8
7
  6
CONTINUOUS
 10
97.070810
 20
44.206853
  0
VERTEX
  8
7
  6
CONTINUOUS
 10
96.397610
 20
44.200308
  0
VERTEX
  8
7
  6
CONTINUOUS
 10
96.397610
 20
45.999770
  0
VERTEX
  8
7
  6
CONTINUOUS
 10
97.028419
 20
46.900925
  0
SEQEND
  8
7
  6
CONTINUOUS
  0
TEXT
  8
5
  6
CONTINUOUS
 10
92.052945
 20
40.280453
 40
0.180000
 50
360.000000
  1
 100 
  0
TEXT
  8
5
  6
CONTINUOUS
 10
91.606190
 20
48.225025
 40
0.180000
 50
360.000000
  1
 150 
  0
TEXT
  8
5
  6
CONTINUOUS
 10
96.697391
 20
46.733184
 40
0.180000
 50
83.927544
  1
 75 
  0
TEXT
  8
5
  6
CONTINUOUS
 10
96.596017
 20
47.486355
 40
0.180000
 50
0.000000
  1
 11 
  0
TEXT
  8
5
  6
CONTINUOUS
 10
96.376852
 20
43.930093
 40
0.180000
 50
0.557019
  1
 34 
  0
TEXT
  8
5
  6
CONTINUOUS
 10
96.296153
 20
45.986238
 40
0.180000
 50
55.007980
  1
 55 
  0
TEXT
  8
3
  6
CONTINUOUS
 10
61.480444
 20
22.777247
 40
0.300000
  1
ESC. - 1:50
  0
POLYLINE
  8
3
  6
CONTINUOUS
 66
     1
  0
VERTEX
  8
3
  6
CONTINUOUS
 10
87.353202
 20
17.564925
  0
VERTEX
  8
3
  6
CONTINUOUS
 10
87.353202
 20
16.764925
  0
VERTEX
  8
3
  6
CONTINUOUS
 10
61.487594
 20
17.734103
  0
VERTEX
  8
3
  6
CONTINUOUS
 10
61.487594
 20
18.534103
  0
SEQEND
  8
3
  6
CONTINUOUS
  0
POLYLINE
  8
3
  6
CONTINUOUS
 66
     1
  0
VERTEX
  8
3
  6
CONTINUOUS
 10
87.356602
 20
18.237909
  0
VERTEX
  8
3
  6
CONTINUOUS
 10
61.484194
 20
19.207341
  0
SEQEND
  8
3
  6
CONTINUOUS
  0
POLYLINE
  8
7
  6
CONTINUOUS
 66
     1
  0
VERTEX
  8
7
  6
CONTINUOUS
 10
87.353202
 20
11.295002
  0
VERTEX
  8
7
  6
CONTINUOUS
 10
87.353202
 20
10.495002
  0
VERTEX
  8
7
  6
CONTINUOUS
 10
61.487594
 20
11.464179
  0
VERTEX
  8
7
  6
CONTINUOUS
 10
61.487594
 20
12.264179
  0
SEQEND
  8
7
  6
CONTINUOUS
  0
POLYLINE
  8
7
  6
CONTINUOUS
 66
     1
  0
VERTEX
  8
7
  6
CONTINUOUS
 10
87.356602
 20
20.478870
  0
VERTEX
  8
7
  6
CONTINUOUS
 10
61.484194
 20
21.448302
  0
SEQEND
  8
7
  6
CONTINUOUS
  0
POLYLINE
  8
7
  6
CONTINUOUS
 66
     1
  0
VERTEX
  8
7
  6
CONTINUOUS
 10
87.356602
 20
12.260923
  0
VERTEX
  8
7
  6
CONTINUOUS
 10
61.484194
 20
13.230355
  0
SEQEND
  8
7
  6
CONTINUOUS
  0
TEXT
  8
5
  6
CONTINUOUS
 10
61.397594
 20
11.504179
 40
0.180000
 50
90.000000
  1
 40 
  0
TEXT
  8
5
  6
CONTINUOUS
 10
87.623202
 20
10.535002
 40
0.180000
 50
90.000000
  1
 40 
  0
TEXT
  8
5
  6
CONTINUOUS
 10
72.762960
 20
12.449887
 40
0.180000
 50
357.854000
  1
19 N8 %%c 12.5 C/10 C=COR
  0
TEXT
  8
3
  6
CONTINUOUS
 10
63.369381
 20
42.522927
 40
0.180000
 50
0.541000
  1
31 N7 %%c 25 C/7
  0
TEXT
  8
3
  6
CONTINUOUS
 10
88.968240
 20
42.764566
 40
0.180000
 50
0.541000
  1
31 N7 %%c 25 C/7
  0
TEXT
  8
3
  6
CONTINUOUS
 10
60.410526
 20
42.966360
 40
0.180000
 50
-17.459000
  1
10 N7 %%c 25 C/7
  0
TEXT
  8
3
  6
CONTINUOUS
 10
57.475180
 20
43.909043
 40
0.180000
 50
342.854000
  1
19 N8 %%c 12.5 C/10
  0
TEXT
  8
5
  6
CONTINUOUS
 10
71.557110
 20
20.714302
 40
0.180000
 50
357.854000
  1
12 N10 %%c 6.3 C/20 C=COR
  0
CIRCLE
  8
7
  6
CONTINUOUS
 10
57.293207
 20
46.170372
 40
0.020000
  0
CIRCLE
  8
7
  6
CONTINUOUS
 10
57.160007
 20
46.170372
 40
0.020000
  0
TEXT
  8
3
  6
CONTINUOUS
 10
93.482177
 20
42.221864
 40
0.180000
  1
(SUP/INF)
  0
TEXT
  8
3
  6
CONTINUOUS
 10
11.075332
 20
45.453686
 40
0.180000
  1
104 N3 %%c 10 C/12
  0
TEXT
  8
3
  6
CONTINUOUS
 10
27.979477
 20
37.999443
 40
0.180000
  1
91 N1 %%c 12.5 C/12
  0
TEXT
  8
3
  6
CONTINUOUS
 10
44.141637
 20
41.847305
 40
0.180000
  1
81 N5 %%c 8 C/15
  0
TEXT
  8
3
  6
CONTINUOUS
 10
44.646644
 20
40.057248
 40
0.180000
  1
60 N4 %%c 6.3 C/20
  0
TEXT
  8
3
  6
CONTINUOUS
 10
13.722449
 20
34.809645
 40
0.180000
 50
104.854000
  1
19 N8 %%c 12.5 C/10
  0
TEXT
  8
3
  6
CONTINUOUS
 10
16.455645
 20
35.031064
 40
0.180000
 50
-254.459000
  1
10 N7 %%c 25 C/7
  0
TEXT
  8
3
  6
CONTINUOUS
 10
47.788864
 20
35.600295
 40
0.180000
 50
-255.000000
  1
2X2 N10 %%c 6.3
  0
TEXT
  8
5
  6
CONTINUOUS
 10
93.176217
 20
42.689926
 40
0.180000
  1
2X2 N10 %%c 6.3
  0
TEXT
  8
3
  6
CONTINUOUS
 10
19.335105
 20
34.905792
 40
0.180000
 50
-254.459000
  1
31 N7 %%c 25 C/7
  0
TEXT
  8
3
  6
CONTINUOUS
 10
44.700630
 20
34.653257
 40
0.180000
 50
-254.459000
  1
31 N7 %%c 25 C/7
  0
TEXT
  8
5
  6
CONTINUOUS
 10
28.438530
 20
55.612167
 40
0.400000
 50
285.306000
  1
2
  0
TEXT
  8
5
  6
CONTINUOUS
 10
36.214266
 20
26.762205
 40
0.400000
 50
285.306000
  1
2
  0
TEXT
  8
8
  6
CONTINUOUS
 10
61.368394
 20
23.415907
 40
0.500000
  1
SEÇÃO 2-2
  0
TEXT
  8
3
  6
CONTINUOUS
 10
62.226978
 20
38.329419
 40
0.250000
  1
ESC. - 1:50
  0
LINE
  8
3
  6
CONTINUOUS
 10
92.119590
 20
32.827997
 11
93.319590
 21
32.827997
  0
LINE
  8
3
  6
CONTINUOUS
 10
93.319590
 20
32.827997
 11
93.319590
 21
33.827997
  0
LINE
  8
3
  6
CONTINUOUS
 10
93.319590
 20
33.827997
 11
93.719590
 21
33.827997
  0
LINE
  8
3
  6
CONTINUOUS
 10
93.719590
 20
33.827997
 11
93.719590
 21
32.427997
  0
LINE
  8
3
  6
CONTINUOUS
 10
93.719590
 20
32.427997
 11
92.119590
 21
32.427997
  0
LINE
  8
3
  6
CONTINUOUS
 10
92.119590
 20
32.427997
 11
57.076607
 21
32.087305
  0
LINE
  8
3
  6
CONTINUOUS
 10
62.260477
 20
32.137703
 11
57.076607
 21
33.737703
  0
LINE
  8
3
  6
CONTINUOUS
 10
57.076607
 20
32.087305
 11
57.076607
 21
34.537703
  0
LINE
  8
3
  6
CONTINUOUS
 10
57.076607
 20
34.537703
 11
57.376607
 21
34.537703
  0
LINE
  8
3
  6
CONTINUOUS
 10
57.376607
 20
34.537703
 11
57.376607
 21
34.237703
  0
LINE
  8
3
  6
CONTINUOUS
 10
57.376607
 20
34.237703
 11
62.260477
 21
34.237703
  0
LINE
  8
3
  6
CONTINUOUS
 10
62.260477
 20
34.237703
 11
62.260477
 21
33.737703
  0
LINE
  8
3
  6
CONTINUOUS
 10
62.260477
 20
33.737703
 11
91.319590
 21
34.011996
  0
LINE
  8
3
  6
CONTINUOUS
 10
91.319590
 20
34.011996
 11
91.319590
 21
34.303686
  0
LINE
  8
3
  6
CONTINUOUS
 10
91.319590
 20
34.303686
 11
91.669590
 21
34.803686
  0
LINE
  8
3
  6
CONTINUOUS
 10
91.669590
 20
34.803686
 11
91.765358
 21
35.703910
  0
LINE
  8
3
  6
CONTINUOUS
 10
91.765358
 20
35.703910
 11
91.809590
 21
35.743686
  0
LINE
  8
3
  6
CONTINUOUS
 10
91.809590
 20
35.743686
 11
92.079590
 21
35.743686
  0
LINE
  8
3
  6
CONTINUOUS
 10
92.079590
 20
35.743686
 11
92.119590
 21
35.703686
  0
LINE
  8
3
  6
CONTINUOUS
 10
92.119590
 20
35.703686
 11
92.119590
 21
32.827997
  0
POLYLINE
  8
3
  6
CONTINUOUS
 66
     1
  0
VERTEX
  8
3
  6
CONTINUOUS
 10
92.056190
 20
33.155546
  0
VERTEX
  8
3
  6
CONTINUOUS
 10
92.056190
 20
33.955546
  0
VERTEX
  8
3
  6
CONTINUOUS
 10
57.140007
 20
33.625967
  0
VERTEX
  8
3
  6
CONTINUOUS
 10
57.140007
 20
32.825967
  0
SEQEND
  8
3
  6
CONTINUOUS
  0
POLYLINE
  8
3
  6
CONTINUOUS
 66
     1
  0
VERTEX
  8
3
  6
CONTINUOUS
 10
92.056190
 20
33.290783
  0
VERTEX
  8
3
  6
CONTINUOUS
 10
92.056190
 20
32.490783
  0
VERTEX
  8
3
  6
CONTINUOUS
 10
57.140007
 20
32.151324
  0
VERTEX
  8
3
  6
CONTINUOUS
 10
57.140007
 20
32.951324
  0
SEQEND
  8
3
  6
CONTINUOUS
  0
POLYLINE
  8
7
  6
CONTINUOUS
 66
     1
  0
VERTEX
  8
7
  6
CONTINUOUS
 10
92.056190
 20
29.286890
  0
VERTEX
  8
7
  6
CONTINUOUS
 10
92.056190
 20
30.086890
  0
VERTEX
  8
7
  6
CONTINUOUS
 10
57.140007
 20
29.757310
  0
VERTEX
  8
7
  6
CONTINUOUS
 10
57.140007
 20
28.957310
  0
SEQEND
  8
7
  6
CONTINUOUS
  0
POLYLINE
  8
7
  6
CONTINUOUS
 66
     1
  0
VERTEX
  8
7
  6
CONTINUOUS
 10
92.056190
 20
27.362501
  0
VERTEX
  8
7
  6
CONTINUOUS
 10
92.056190
 20
26.562501
  0
VERTEX
  8
7
  6
CONTINUOUS
 10
57.140007
 20
26.223041
  0
VERTEX
  8
7
  6
CONTINUOUS
 10
57.140007
 20
27.023041
  0
SEQEND
  8
7
  6
CONTINUOUS
  0
TEXT
  8
5
  6
CONTINUOUS
 10
57.050007
 20
26.263041
 40
0.180000
 50
90.000000
  1
 40 
  0
TEXT
  8
5
  6
CONTINUOUS
 10
92.326190
 20
26.602501
 40
0.180000
 50
90.000000
  1
 40 
  0
TEXT
  8
5
  6
CONTINUOUS
 10
73.592127
 20
26.038734
 40
0.180000
  1
5 N11 %%c 20 C=COR
  0
LINE
  8
3
  6
CONTINUOUS
 10
61.424194
 20
19.273034
 11
61.424194
 21
17.613601
  0
LINE
  8
3
  6
CONTINUOUS
 10
63.010337
 20
17.613601
 11
85.830337
 21
16.758542
  0
LINE
  8
3
  6
CONTINUOUS
 10
87.416602
 20
16.699105
 11
87.416602
 21
18.299105
  0
LINE
  8
3
  6
CONTINUOUS
 10
87.416602
 20
18.299105
 11
61.424194
 21
19.273034
  0
LINE
  8
3
  6
CONTINUOUS
 10
63.010337
 20
17.613601
 11
61.424194
 21
17.613601
  0
POLYLINE
  8
3
  6
CONTINUOUS
 66
     1
  0
VERTEX
  8
3
  6
CONTINUOUS
 10
61.619194
 20
19.078601
  0
VERTEX
  8
3
  6
CONTINUOUS
 10
61.549194
 20
19.148601
  0
VERTEX
  8
3
  6
CONTINUOUS
 10
61.489194
 20
19.148601
  0
VERTEX
  8
3
  6
CONTINUOUS
 10
61.489194
 20
17.678601
  0
VERTEX
  8
3
  6
CONTINUOUS
 10
62.459956
 20
17.678601
  0
VERTEX
  8
3
  6
CONTINUOUS
 10
62.459956
 20
19.148601
  0
VERTEX
  8
3
  6
CONTINUOUS
 10
61.489194
 20
19.148601
  0
VERTEX
  8
3
  6
CONTINUOUS
 10
61.489194
 20
19.078601
  0
VERTEX
  8
3
  6
CONTINUOUS
 10
61.559194
 20
19.018601
  0
SEQEND
  8
3
  6
CONTINUOUS
  0
POLYLINE
  8
3
  6
CONTINUOUS
 66
     1
  0
VERTEX
  8
3
  6
CONTINUOUS
 10
62.104575
 20
19.078601
  0
VERTEX
  8
3
  6
CONTINUOUS
 10
62.034575
 20
19.148601
  0
VERTEX
  8
3
  6
CONTINUOUS
 10
61.974575
 20
19.148601
  0
VERTEX
  8
3
  6
CONTINUOUS
 10
61.974575
 20
17.678601
  0
VERTEX
  8
3
  6
CONTINUOUS
 10
62.945337
 20
17.678601
  0
VERTEX
  8
3
  6
CONTINUOUS
 10
62.945337
 20
19.148601
  0
VERTEX
  8
3
  6
CONTINUOUS
 10
61.974575
 20
19.148601
  0
VERTEX
  8
3
  6
CONTINUOUS
 10
61.974575
 20
19.078601
  0
VERTEX
  8
3
  6
CONTINUOUS
 10
62.044575
 20
19.018601
  0
SEQEND
  8
3
  6
CONTINUOUS
  0
POLYLINE
  8
7
  6
CONTINUOUS
 66
     1
  0
VERTEX
  8
7
  6
CONTINUOUS
 10
58.310462
 20
19.078601
  0
VERTEX
  8
7
  6
CONTINUOUS
 10
58.240462
 20
19.148601
  0
VERTEX
  8
7
  6
CONTINUOUS
 10
58.180462
 20
19.148601
  0
VERTEX
  8
7
  6
CONTINUOUS
 10
58.180462
 20
17.678601
  0
VERTEX
  8
7
  6
CONTINUOUS
 10
59.151224
 20
17.678601
  0
VERTEX
  8
7
  6
CONTINUOUS
 10
59.151224
 20
19.148601
  0
VERTEX
  8
7
  6
CONTINUOUS
 10
58.180462
 20
19.148601
  0
VERTEX
  8
7
  6
CONTINUOUS
 10
58.180462
 20
19.078601
  0
VERTEX
  8
7
  6
CONTINUOUS
 10
58.250462
 20
19.018601
  0
SEQEND
  8
7
  6
CONTINUOUS
  0
POLYLINE
  8
7
  6
CONTINUOUS
 66
     1
  0
VERTEX
  8
7
  6
CONTINUOUS
 10
58.795843
 20
18.778601
  0
VERTEX
  8
7
  6
CONTINUOUS
 10
58.725843
 20
18.848601
  0
VERTEX
  8
7
  6
CONTINUOUS
 10
58.665843
 20
18.848601
  0
VERTEX
  8
7
  6
CONTINUOUS
 10
58.665843
 20
17.378601
  0
VERTEX
  8
7
  6
CONTINUOUS
 10
59.636605
 20
17.378601
  0
VERTEX
  8
7
  6
CONTINUOUS
 10
59.636605
 20
18.848601
  0
VERTEX
  8
7
  6
CONTINUOUS
 10
58.665843
 20
18.848601
  0
VERTEX
  8
7
  6
CONTINUOUS
 10
58.665843
 20
18.778601
  0
VERTEX
  8
7
  6
CONTINUOUS
 10
58.735843
 20
18.718601
  0
SEQEND
  8
7
  6
CONTINUOUS
  0
LINE
  8
3
  6
CONTINUOUS
 10
87.416602
 20
16.699105
 11
85.830337
 21
16.699105
  0
LINE
  8
3
  6
CONTINUOUS
 10
85.830337
 20
16.699105
 11
85.830337
 21
16.758542
  0
POLYLINE
  8
3
  6
CONTINUOUS
 66
     1
  0
VERTEX
  8
3
  6
CONTINUOUS
 10
86.025337
 20
18.164105
  0
VERTEX
  8
3
  6
CONTINUOUS
 10
85.955337
 20
18.234105
  0
VERTEX
  8
3
  6
CONTINUOUS
 10
85.895337
 20
18.234105
  0
VERTEX
  8
3
  6
CONTINUOUS
 10
85.895337
 20
16.764105
  0
VERTEX
  8
3
  6
CONTINUOUS
 10
86.866180
 20
16.764105
  0
VERTEX
  8
3
  6
CONTINUOUS
 10
86.866180
 20
18.234105
  0
VERTEX
  8
3
  6
CONTINUOUS
 10
85.895337
 20
18.234105
  0
VERTEX
  8
3
  6
CONTINUOUS
 10
85.895337
 20
18.164105
  0
VERTEX
  8
3
  6
CONTINUOUS
 10
85.965337
 20
18.104105
  0
SEQEND
  8
3
  6
CONTINUOUS
  0
POLYLINE
  8
3
  6
CONTINUOUS
 66
     1
  0
VERTEX
  8
3
  6
CONTINUOUS
 10
86.510758
 20
18.164105
  0
VERTEX
  8
3
  6
CONTINUOUS
 10
86.440758
 20
18.234105
  0
VERTEX
  8
3
  6
CONTINUOUS
 10
86.380758
 20
18.234105
  0
VERTEX
  8
3
  6
CONTINUOUS
 10
86.380758
 20
16.764105
  0
VERTEX
  8
3
  6
CONTINUOUS
 10
87.351602
 20
16.764105
  0
VERTEX
  8
3
  6
CONTINUOUS
 10
87.351602
 20
18.234105
  0
VERTEX
  8
3
  6
CONTINUOUS
 10
86.380758
 20
18.234105
  0
VERTEX
  8
3
  6
CONTINUOUS
 10
86.380758
 20
18.164105
  0
VERTEX
  8
3
  6
CONTINUOUS
 10
86.450758
 20
18.104105
  0
SEQEND
  8
3
  6
CONTINUOUS
  0
POLYLINE
  8
7
  6
CONTINUOUS
 66
     1
  0
VERTEX
  8
7
  6
CONTINUOUS
 10
90.014521
 20
18.164985
  0
VERTEX
  8
7
  6
CONTINUOUS
 10
89.944521
 20
18.234985
  0
VERTEX
  8
7
  6
CONTINUOUS
 10
89.884521
 20
18.234985
  0
VERTEX
  8
7
  6
CONTINUOUS
 10
89.884521
 20
16.764985
  0
VERTEX
  8
7
  6
CONTINUOUS
 10
90.855364
 20
16.764985
  0
VERTEX
  8
7
  6
CONTINUOUS
 10
90.855364
 20
18.234985
  0
VERTEX
  8
7
  6
CONTINUOUS
 10
89.884521
 20
18.234985
  0
VERTEX
  8
7
  6
CONTINUOUS
 10
89.884521
 20
18.164985
  0
VERTEX
  8
7
  6
CONTINUOUS
 10
89.954521
 20
18.104985
  0
SEQEND
  8
7
  6
CONTINUOUS
  0
POLYLINE
  8
7
  6
CONTINUOUS
 66
     1
  0
VERTEX
  8
7
  6
CONTINUOUS
 10
90.499942
 20
17.864985
  0
VERTEX
  8
7
  6
CONTINUOUS
 10
90.429942
 20
17.934985
  0
VERTEX
  8
7
  6
CONTINUOUS
 10
90.369942
 20
17.934985
  0
VERTEX
  8
7
  6
CONTINUOUS
 10
90.369942
 20
16.464985
  0
VERTEX
  8
7
  6
CONTINUOUS
 10
91.340786
 20
16.464985
  0
VERTEX
  8
7
  6
CONTINUOUS
 10
91.340786
 20
17.934985
  0
VERTEX
  8
7
  6
CONTINUOUS
 10
90.369942
 20
17.934985
  0
VERTEX
  8
7
  6
CONTINUOUS
 10
90.369942
 20
17.864985
  0
VERTEX
  8
7
  6
CONTINUOUS
 10
90.439942
 20
17.804985
  0
SEQEND
  8
7
  6
CONTINUOUS
  0
CIRCLE
  8
7
  6
CONTINUOUS
 10
61.505214
 20
19.117581
 40
0.016000
  0
CIRCLE
  8
7
  6
CONTINUOUS
 10
61.861240
 20
19.117581
 40
0.016000
  0
CIRCLE
  8
7
  6
CONTINUOUS
 10
62.217265
 20
19.117581
 40
0.016000
  0
CIRCLE
  8
7
  6
CONTINUOUS
 10
62.573291
 20
19.117581
 40
0.016000
  0
CIRCLE
  8
7
  6
CONTINUOUS
 10
62.929317
 20
19.117581
 40
0.016000
  0
CIRCLE
  8
7
  6
CONTINUOUS
 10
61.505214
 20
17.709621
 40
0.016000
  0
CIRCLE
  8
7
  6
CONTINUOUS
 10
61.861240
 20
17.709621
 40
0.016000
  0
CIRCLE
  8
7
  6
CONTINUOUS
 10
62.217265
 20
17.709621
 40
0.016000
  0
CIRCLE
  8
7
  6
CONTINUOUS
 10
62.573291
 20
17.709621
 40
0.016000
  0
CIRCLE
  8
7
  6
CONTINUOUS
 10
62.929317
 20
17.709621
 40
0.016000
  0
CIRCLE
  8
7
  6
CONTINUOUS
 10
85.911357
 20
18.203085
 40
0.016000
  0
CIRCLE
  8
7
  6
CONTINUOUS
 10
86.267413
 20
18.203085
 40
0.016000
  0
CIRCLE
  8
7
  6
CONTINUOUS
 10
86.623469
 20
18.203085
 40
0.016000
  0
CIRCLE
  8
7
  6
CONTINUOUS
 10
86.979526
 20
18.203085
 40
0.016000
  0
CIRCLE
  8
7
  6
CONTINUOUS
 10
87.335582
 20
18.203085
 40
0.016000
  0
CIRCLE
  8
7
  6
CONTINUOUS
 10
85.911357
 20
16.795125
 40
0.016000
  0
CIRCLE
  8
7
  6
CONTINUOUS
 10
86.267413
 20
16.795125
 40
0.016000
  0
CIRCLE
  8
7
  6
CONTINUOUS
 10
86.623469
 20
16.795125
 40
0.016000
  0
CIRCLE
  8
7
  6
CONTINUOUS
 10
86.979526
 20
16.795125
 40
0.016000
  0
CIRCLE
  8
7
  6
CONTINUOUS
 10
87.335582
 20
16.795125
 40
0.016000
  0
LINE
  8
1
  6
CONTINUOUS
 10
61.505214
 20
19.117581
 11
61.505214
 21
19.813642
  0
LINE
  8
1
  6
CONTINUOUS
 10
61.505214
 20
19.813642
 11
63.955273
 21
19.813642
  0
LINE
  8
1
  6
CONTINUOUS
 10
61.861240
 20
19.117581
 11
61.861240
 21
19.813642
  0
LINE
  8
1
  6
CONTINUOUS
 10
62.217265
 20
19.117581
 11
62.217265
 21
19.813642
  0
LINE
  8
1
  6
CONTINUOUS
 10
62.573291
 20
19.117581
 11
62.573291
 21
19.813642
  0
LINE
  8
1
  6
CONTINUOUS
 10
62.929317
 20
19.117581
 11
62.929317
 21
19.813642
  0
LINE
  8
1
  6
CONTINUOUS
 10
61.505214
 20
17.013561
 11
61.505214
 21
17.709621
  0
LINE
  8
1
  6
CONTINUOUS
 10
61.505214
 20
17.013561
 11
63.955273
 21
17.013561
  0
LINE
  8
1
  6
CONTINUOUS
 10
61.861240
 20
17.013561
 11
61.861240
 21
17.709621
  0
LINE
  8
1
  6
CONTINUOUS
 10
62.217265
 20
17.013561
 11
62.217265
 21
17.709621
  0
LINE
  8
1
  6
CONTINUOUS
 10
62.573291
 20
17.013561
 11
62.573291
 21
17.709621
  0
LINE
  8
1
  6
CONTINUOUS
 10
62.929317
 20
17.013561
 11
62.929317
 21
17.709621
  0
LINE
  8
1
  6
CONTINUOUS
 10
85.911357
 20
18.203085
 11
85.911357
 21
18.899146
  0
LINE
  8
1
  6
CONTINUOUS
 10
84.885401
 20
18.899146
 11
87.335459
 21
18.899146
  0
LINE
  8
1
  6
CONTINUOUS
 10
86.267382
 20
18.203085
 11
86.267382
 21
18.899146
  0
LINE
  8
1
  6
CONTINUOUS
 10
86.623408
 20
18.203085
 11
86.623408
 21
18.899146
  0
LINE
  8
1
  6
CONTINUOUS
 10
86.979434
 20
18.203085
 11
86.979434
 21
18.899146
  0
LINE
  8
1
  6
CONTINUOUS
 10
87.335459
 20
18.203085
 11
87.335459
 21
18.899146
  0
LINE
  8
1
  6
CONTINUOUS
 10
85.911357
 20
16.099065
 11
85.911357
 21
16.795125
  0
LINE
  8
1
  6
CONTINUOUS
 10
86.267382
 20
16.099065
 11
86.267382
 21
16.795125
  0
LINE
  8
1
  6
CONTINUOUS
 10
86.623408
 20
16.099065
 11
86.623408
 21
16.795125
  0
LINE
  8
1
  6
CONTINUOUS
 10
86.979434
 20
16.099065
 11
86.979434
 21
16.795125
  0
LINE
  8
1
  6
CONTINUOUS
 10
87.335459
 20
16.099065
 11
87.335459
 21
16.795125
  0
LINE
  8
1
  6
CONTINUOUS
 10
84.885401
 20
16.099065
 11
87.335459
 21
16.099065
  0
TEXT
  8
5
  6
CONTINUOUS
 10
57.050007
 20
28.997310
 40
0.180000
 50
90.000000
  1
 40 
  0
TEXT
  8
5
  6
CONTINUOUS
 10
92.326190
 20
29.326890
 40
0.180000
 50
90.000000
  1
 40 
  0
TEXT
  8
5
  6
CONTINUOUS
 10
73.592127
 20
30.116394
 40
0.180000
  1
5 N11 %%c 20 C=COR
  0
TEXT
  8
3
  6
CONTINUOUS
 10
62.589415
 20
19.950518
 40
0.180000
  1
5 N11 %%c 20
  0
TEXT
  8
3
  6
CONTINUOUS
 10
62.589415
 20
16.673473
 40
0.180000
  1
5 N11 %%c 20
  0
TEXT
  8
8
  6
CONTINUOUS
 10
57.259486
 20
38.329419
 40
0.500000
  1
SEÇÃO 3-3
  0
TEXT
  8
8
  6
CONTINUOUS
 10
67.082991
 20
38.329419
 40
0.500000
  1
2X
  0
TEXT
  8
5
  6
CONTINUOUS
 10
84.913997
 20
19.043868
 40
0.180000
  1
5 N11 %%c 20
  0
TEXT
  8
5
  6
CONTINUOUS
 10
84.913997
 20
15.815200
 40
0.180000
  1
5 N11 %%c 20
  0
LINE
  8
4
  6
CONTINUOUS
 10
57.076607
 20
36.513337
 11
92.079590
 21
36.513337
  0
LINE
  8
4
  6
CONTINUOUS
 10
57.076607
 20
34.637703
 11
57.076607
 21
36.663337
  0
LINE
  8
4
  6
CONTINUOUS
 10
92.079590
 20
35.843686
 11
92.079590
 21
36.663337
  0
LINE
  8
3
  6
CONTINUOUS
 10
57.076607
 20
36.513337
 11
57.324468
 21
36.545968
  0
LINE
  8
3
  6
CONTINUOUS
 10
57.076607
 20
36.513337
 11
57.324468
 21
36.480705
  0
LINE
  8
3
  6
CONTINUOUS
 10
92.079590
 20
36.513337
 11
91.831729
 21
36.480705
  0
LINE
  8
3
  6
CONTINUOUS
 10
92.079590
 20
36.513337
 11
91.831729
 21
36.545968
  0
LINE
  8
5
  6
ESTILO_TQS_0004
 10
6.689111
 20
52.274623
 11
44.896769
 21
52.274623
  0
POLYLINE
  8
8
  6
CONTINUOUS
 66
     1
  0
VERTEX
  8
8
  6
CONTINUOUS
 10
4.896839
 20
52.484413
  0
VERTEX
  8
8
  6
CONTINUOUS
 10
4.896839
 20
52.274623
  0
VERTEX
  8
8
  6
CONTINUOUS
 10
6.365369
 20
52.274623
  0
VERTEX
  8
8
  6
CONTINUOUS
 10
6.365369
 20
52.484413
  0
VERTEX
  8
8
  6
CONTINUOUS
 10
4.896839
 20
52.484413
  0
SEQEND
  8
8
  6
CONTINUOUS
  0
POLYLINE
  8
8
  6
CONTINUOUS
 66
     1
  0
VERTEX
  8
8
  6
CONTINUOUS
 10
6.479317
 20
52.484413
  0
VERTEX
  8
8
  6
CONTINUOUS
 10
6.479317
 20
52.274623
  0
VERTEX
  8
8
  6
CONTINUOUS
 10
6.689111
 20
52.274623
  0
VERTEX
  8
8
  6
CONTINUOUS
 10
6.689111
 20
52.484413
  0
VERTEX
  8
8
  6
CONTINUOUS
 10
6.479317
 20
52.484413
  0
SEQEND
  8
8
  6
CONTINUOUS
  0
POLYLINE
  8
5
  6
CONTINUOUS
 66
     1
  0
VERTEX
  8
5
  6
CONTINUOUS
 10
5.634364
 20
52.900535
  0
VERTEX
  8
5
  6
CONTINUOUS
 10
5.199015
 20
52.631916
  0
VERTEX
  8
5
  6
CONTINUOUS
 10
6.069720
 20
52.631916
  0
VERTEX
  8
5
  6
CONTINUOUS
 10
5.634364
 20
52.900535
  0
SEQEND
  8
5
  6
CONTINUOUS
  0
POLYLINE
  8
8
  6
CONTINUOUS
 66
     1
  0
VERTEX
  8
8
  6
CONTINUOUS
 10
46.689040
 20
52.484413
  0
VERTEX
  8
8
  6
CONTINUOUS
 10
46.689040
 20
52.274623
  0
VERTEX
  8
8
  6
CONTINUOUS
 10
45.220511
 20
52.274623
  0
VERTEX
  8
8
  6
CONTINUOUS
 10
45.220511
 20
52.484413
  0
VERTEX
  8
8
  6
CONTINUOUS
 10
46.689040
 20
52.484413
  0
SEQEND
  8
8
  6
CONTINUOUS
  0
POLYLINE
  8
8
  6
CONTINUOUS
 66
     1
  0
VERTEX
  8
8
  6
CONTINUOUS
 10
45.106562
 20
52.484413
  0
VERTEX
  8
8
  6
CONTINUOUS
 10
45.106562
 20
52.274623
  0
VERTEX
  8
8
  6
CONTINUOUS
 10
44.896769
 20
52.274623
  0
VERTEX
  8
8
  6
CONTINUOUS
 10
44.896769
 20
52.484413
  0
VERTEX
  8
8
  6
CONTINUOUS
 10
45.106562
 20
52.484413
  0
SEQEND
  8
8
  6
CONTINUOUS
  0
POLYLINE
  8
5
  6
CONTINUOUS
 66
     1
  0
VERTEX
  8
5
  6
CONTINUOUS
 10
45.951515
 20
52.900535
  0
VERTEX
  8
5
  6
CONTINUOUS
 10
46.386864
 20
52.631916
  0
VERTEX
  8
5
  6
CONTINUOUS
 10
45.516160
 20
52.631916
  0
VERTEX
  8
5
  6
CONTINUOUS
 10
45.951515
 20
52.900535
  0
SEQEND
  8
5
  6
CONTINUOUS
  0
LINE
  8
5
  6
ESTILO_TQS_0004
 10
13.121757
 20
28.770691
 11
51.329415
 21
28.770691
  0
POLYLINE
  8
8
  6
CONTINUOUS
 66
     1
  0
VERTEX
  8
8
  6
CONTINUOUS
 10
11.329486
 20
28.980481
  0
VERTEX
  8
8
  6
CONTINUOUS
 10
11.329486
 20
28.770691
  0
VERTEX
  8
8
  6
CONTINUOUS
 10
12.798015
 20
28.770691
  0
VERTEX
  8
8
  6
CONTINUOUS
 10
12.798015
 20
28.980481
  0
VERTEX
  8
8
  6
CONTINUOUS
 10
11.329486
 20
28.980481
  0
SEQEND
  8
8
  6
CONTINUOUS
  0
POLYLINE
  8
8
  6
CONTINUOUS
 66
     1
  0
VERTEX
  8
8
  6
CONTINUOUS
 10
12.911964
 20
28.980481
  0
VERTEX
  8
8
  6
CONTINUOUS
 10
12.911964
 20
28.770691
  0
VERTEX
  8
8
  6
CONTINUOUS
 10
13.121757
 20
28.770691
  0
VERTEX
  8
8
  6
CONTINUOUS
 10
13.121757
 20
28.980481
  0
VERTEX
  8
8
  6
CONTINUOUS
 10
12.911964
 20
28.980481
  0
SEQEND
  8
8
  6
CONTINUOUS
  0
POLYLINE
  8
5
  6
CONTINUOUS
 66
     1
  0
VERTEX
  8
5
  6
CONTINUOUS
 10
12.067011
 20
29.396603
  0
VERTEX
  8
5
  6
CONTINUOUS
 10
11.631662
 20
29.127984
  0
VERTEX
  8
5
  6
CONTINUOUS
 10
12.502366
 20
29.127984
  0
VERTEX
  8
5
  6
CONTINUOUS
 10
12.067011
 20
29.396603
  0
SEQEND
  8
5
  6
CONTINUOUS
  0
POLYLINE
  8
8
  6
CONTINUOUS
 66
     1
  0
VERTEX
  8
8
  6
CONTINUOUS
 10
53.121687
 20
28.980481
  0
VERTEX
  8
8
  6
CONTINUOUS
 10
53.121687
 20
28.770691
  0
VERTEX
  8
8
  6
CONTINUOUS
 10
51.653157
 20
28.770691
  0
VERTEX
  8
8
  6
CONTINUOUS
 10
51.653157
 20
28.980481
  0
VERTEX
  8
8
  6
CONTINUOUS
 10
53.121687
 20
28.980481
  0
SEQEND
  8
8
  6
CONTINUOUS
  0
POLYLINE
  8
8
  6
CONTINUOUS
 66
     1
  0
VERTEX
  8
8
  6
CONTINUOUS
 10
51.539209
 20
28.980481
  0
VERTEX
  8
8
  6
CONTINUOUS
 10
51.539209
 20
28.770691
  0
VERTEX
  8
8
  6
CONTINUOUS
 10
51.329415
 20
28.770691
  0
VERTEX
  8
8
  6
CONTINUOUS
 10
51.329415
 20
28.980481
  0
VERTEX
  8
8
  6
CONTINUOUS
 10
51.539209
 20
28.980481
  0
SEQEND
  8
8
  6
CONTINUOUS
  0
POLYLINE
  8
5
  6
CONTINUOUS
 66
     1
  0
VERTEX
  8
5
  6
CONTINUOUS
 10
52.384162
 20
29.396603
  0
VERTEX
  8
5
  6
CONTINUOUS
 10
52.819511
 20
29.127984
  0
VERTEX
  8
5
  6
CONTINUOUS
 10
51.948807
 20
29.127984
  0
VERTEX
  8
5
  6
CONTINUOUS
 10
52.384162
 20
29.396603
  0
SEQEND
  8
5
  6
CONTINUOUS
  0
TEXT
  8
5
  6
CONTINUOUS
 10
5.487805
 20
53.031684
 40
0.400000
  1
3
  0
TEXT
  8
5
  6
CONTINUOUS
 10
45.837593
 20
53.025901
 40
0.400000
  1
3
  0
TEXT
  8
5
  6
CONTINUOUS
 10
11.920451
 20
29.527752
 40
0.400000
  1
3
  0
TEXT
  8
5
  6
CONTINUOUS
 10
52.270240
 20
29.521969
 40
0.400000
  1
3
  0
TEXT
  8
3
  6
CONTINUOUS
 10
73.942287
 20
34.079967
 40
0.180000
  1
5 N11 %%c 20
  0
TEXT
  8
3
  6
CONTINUOUS
 10
73.898393
 20
31.907203
 40
0.180000
  1
5 N11 %%c 20
  0
LINE
  8
3
  6
CONTINUOUS
 10
22.662340
 20
17.878789
 11
26.314718
 21
19.261856
  0
LINE
  8
3
  6
CONTINUOUS
 10
26.314718
 20
15.897857
 11
26.314718
 21
19.261856
  0
LINE
  8
3
  6
CONTINUOUS
 10
26.354718
 20
15.913004
 11
22.622340
 21
14.499643
  0
LINE
  8
3
  6
ESTILO_TQS_0001
 10
22.268109
 20
17.815793
 11
22.172340
 21
16.915568
  0
LINE
  8
3
  6
ESTILO_TQS_0001
 10
22.172340
 20
16.915568
 11
21.822340
 21
16.415568
  0
LINE
  8
3
  6
ESTILO_TQS_0001
 10
21.822340
 20
16.415568
 11
21.822340
 21
16.123879
  0
LINE
  8
3
  6
ESTILO_TQS_0001
 10
22.622340
 20
14.539880
 11
22.622340
 21
17.815568
  0
LINE
  8
3
  6
ESTILO_TQS_0001
 10
22.622340
 20
17.815568
 11
22.582340
 21
17.855568
  0
LINE
  8
3
  6
ESTILO_TQS_0001
 10
22.582340
 20
17.855568
 11
22.312340
 21
17.855568
  0
LINE
  8
3
  6
ESTILO_TQS_0001
 10
22.312340
 20
17.855568
 11
22.268109
 21
17.815793
  0
LINE
  8
3
  6
ESTILO_TQS_0001
 10
26.708950
 20
19.237228
 11
26.804718
 21
18.337003
  0
LINE
  8
3
  6
ESTILO_TQS_0001
 10
26.804718
 20
18.337003
 11
27.154718
 21
17.837003
  0
LINE
  8
3
  6
ESTILO_TQS_0001
 10
27.154718
 20
17.837003
 11
27.154718
 21
17.537003
  0
LINE
  8
3
  6
ESTILO_TQS_0001
 10
26.354718
 20
15.953004
 11
26.354718
 21
19.237003
  0
LINE
  8
3
  6
ESTILO_TQS_0001
 10
26.354718
 20
19.237003
 11
26.394718
 21
19.277003
  0
LINE
  8
3
  6
ESTILO_TQS_0001
 10
26.394718
 20
19.277003
 11
26.664718
 21
19.277003
  0
LINE
  8
3
  6
ESTILO_TQS_0001
 10
26.664718
 20
19.277003
 11
26.708950
 21
19.237228
  0
LINE
  8
3
  6
CONTINUOUS
 10
31.917017
 20
15.802891
 11
30.687017
 21
15.802891
  0
LINE
  8
3
  6
CONTINUOUS
 10
32.217017
 20
14.602891
 11
30.927017
 21
14.602891
  0
LINE
  8
3
  6
CONTINUOUS
 10
32.217017
 20
19.162891
 11
32.217017
 21
14.602891
  0
LINE
  8
3
  6
CONTINUOUS
 10
30.687017
 20
13.827753
 11
30.687017
 21
15.802891
  0
LINE
  8
3
  6
CONTINUOUS
 10
30.927017
 20
13.827753
 11
30.927017
 21
14.602891
  0
LINE
  8
3
  6
CONTINUOUS
 10
31.027017
 20
13.827753
 11
31.027017
 21
14.602891
  0
LINE
  8
11
  6
ESTILO_TQS_0003
 10
31.452017
 20
13.827753
 11
31.452017
 21
14.602891
  0
LINE
  8
3
  6
CONTINUOUS
 10
31.877017
 20
13.827753
 11
31.877017
 21
14.602891
  0
LINE
  8
3
  6
CONTINUOUS
 10
31.977017
 20
13.827753
 11
31.977017
 21
14.602891
  0
LINE
  8
3
  6
ESTILO_TQS_0001
 10
30.927017
 20
14.602891
 11
30.927017
 21
15.002891
  0
LINE
  8
3
  6
ESTILO_TQS_0001
 10
30.927017
 20
15.002891
 11
31.977017
 21
15.002891
  0
LINE
  8
3
  6
ESTILO_TQS_0001
 10
31.977017
 20
15.002891
 11
31.977017
 21
14.602891
  0
LINE
  8
3
  6
ESTILO_TQS_0001
 10
31.027017
 20
14.602891
 11
31.027017
 21
15.002891
  0
LINE
  8
3
  6
ESTILO_TQS_0001
 10
31.877017
 20
14.602891
 11
31.877017
 21
15.002891
  0
LINE
  8
3
  6
CONTINUOUS
 10
26.354718
 20
14.713004
 11
22.622340
 21
13.299643
  0
LINE
  8
3
  6
CONTINUOUS
 10
31.917017
 20
15.802891
 11
31.917017
 21
19.162891
  0
LINE
  8
3
  6
CONTINUOUS
 10
31.917017
 20
19.162891
 11
32.217017
 21
19.162891
  0
LINE
  8
7
  6
CONTINUOUS
 10
32.217017
 20
16.995162
 11
33.335394
 21
16.995162
  0
LINE
  8
3
  6
CONTINUOUS
 10
30.511217
 20
13.827753
 11
31.208493
 21
13.827753
  0
LINE
  8
3
  6
CONTINUOUS
 10
31.533205
 20
13.827753
 11
32.183316
 21
13.827753
  0
POLYLINE
  8
3
  6
CONTINUOUS
 66
     1
  0
VERTEX
  8
3
  6
CONTINUOUS
 10
31.208493
 20
13.827753
  0
VERTEX
  8
3
  6
CONTINUOUS
 10
31.316730
 20
13.827753
  0
VERTEX
  8
3
  6
CONTINUOUS
 10
31.370849
 20
13.990109
  0
VERTEX
  8
3
  6
CONTINUOUS
 10
31.370849
 20
13.665397
  0
VERTEX
  8
3
  6
CONTINUOUS
 10
31.424968
 20
13.827753
  0
VERTEX
  8
3
  6
CONTINUOUS
 10
31.533205
 20
13.827753
  0
SEQEND
  8
3
  6
CONTINUOUS
  0
LINE
  8
3
  6
CONTINUOUS
 10
20.951110
 20
14.483408
 11
22.622340
 21
14.499643
  0
LINE
  8
3
  6
ESTILO_TQS_0001
 10
20.951110
 20
16.115655
 11
21.822340
 21
16.123879
  0
LINE
  8
3
  6
ESTILO_TQS_0001
 10
20.951110
 20
14.523632
 11
22.622340
 21
14.539880
  0
LINE
  8
3
  6
CONTINUOUS
 10
20.951110
 20
13.283408
 11
22.622340
 21
13.299643
  0
LINE
  8
3
  6
CONTINUOUS
 10
26.354718
 20
15.913004
 11
28.189972
 21
15.865611
  0
LINE
  8
3
  6
ESTILO_TQS_0001
 10
27.154718
 20
17.537003
 11
28.189972
 21
17.510048
  0
LINE
  8
3
  6
ESTILO_TQS_0001
 10
26.354718
 20
15.953004
 11
28.189972
 21
15.905611
  0
LINE
  8
3
  6
CONTINUOUS
 10
26.354718
 20
14.713004
 11
28.189972
 21
14.665611
  0
TEXT
  8
8
  6
CONTINUOUS
 10
23.038985
 20
21.382352
 40
0.400000
  1
ELEVAÇÃO
  0
TEXT
  8
8
  6
CONTINUOUS
 10
30.587105
 20
21.269450
 40
0.400000
  1
SEÇÃO
  0
POLYLINE
  8
3
  6
CONTINUOUS
 66
     1
  0
VERTEX
  8
3
  6
CONTINUOUS
 10
20.951110
 20
12.883408
  0
VERTEX
  8
3
  6
CONTINUOUS
 10
20.965784
 20
12.914698
  0
VERTEX
  8
3
  6
CONTINUOUS
 10
20.977338
 20
12.945290
  0
VERTEX
  8
3
  6
CONTINUOUS
 10
20.989257
 20
12.987939
  0
VERTEX
  8
3
  6
CONTINUOUS
 10
20.999196
 20
13.059118
  0
VERTEX
  8
3
  6
CONTINUOUS
 10
20.996505
 20
13.137420
  0
VERTEX
  8
3
  6
CONTINUOUS
 10
20.982290
 20
13.205771
  0
VERTEX
  8
3
  6
CONTINUOUS
 10
20.971085
 20
13.238939
  0
VERTEX
  8
3
  6
CONTINUOUS
 10
20.951110
 20
13.283408
  0
SEQEND
  8
3
  6
CONTINUOUS
  0
POLYLINE
  8
3
  6
CONTINUOUS
 66
     1
  0
VERTEX
  8
3
  6
CONTINUOUS
 10
20.951110
 20
13.683408
  0
VERTEX
  8
3
  6
CONTINUOUS
 10
20.936434
 20
13.652118
  0
VERTEX
  8
3
  6
CONTINUOUS
 10
20.924880
 20
13.621526
  0
VERTEX
  8
3
  6
CONTINUOUS
 10
20.912961
 20
13.578877
  0
VERTEX
  8
3
  6
CONTINUOUS
 10
20.903023
 20
13.507698
  0
VERTEX
  8
3
  6
CONTINUOUS
 10
20.905715
 20
13.429396
  0
VERTEX
  8
3
  6
CONTINUOUS
 10
20.919930
 20
13.361045
  0
VERTEX
  8
3
  6
CONTINUOUS
 10
20.931133
 20
13.327877
  0
VERTEX
  8
3
  6
CONTINUOUS
 10
20.951110
 20
13.283409
  0
SEQEND
  8
3
  6
CONTINUOUS
  0
POLYLINE
  8
3
  6
CONTINUOUS
 66
     1
  0
VERTEX
  8
3
  6
CONTINUOUS
 10
20.951110
 20
13.683408
  0
VERTEX
  8
3
  6
CONTINUOUS
 10
20.965784
 20
13.714698
  0
VERTEX
  8
3
  6
CONTINUOUS
 10
20.977338
 20
13.745290
  0
VERTEX
  8
3
  6
CONTINUOUS
 10
20.989257
 20
13.787939
  0
VERTEX
  8
3
  6
CONTINUOUS
 10
20.999196
 20
13.859118
  0
VERTEX
  8
3
  6
CONTINUOUS
 10
20.996505
 20
13.937420
  0
VERTEX
  8
3
  6
CONTINUOUS
 10
20.982290
 20
14.005771
  0
VERTEX
  8
3
  6
CONTINUOUS
 10
20.971085
 20
14.038939
  0
VERTEX
  8
3
  6
CONTINUOUS
 10
20.951110
 20
14.083408
  0
SEQEND
  8
3
  6
CONTINUOUS
  0
POLYLINE
  8
3
  6
CONTINUOUS
 66
     1
  0
VERTEX
  8
3
  6
CONTINUOUS
 10
20.951110
 20
14.483408
  0
VERTEX
  8
3
  6
CONTINUOUS
 10
20.936434
 20
14.452118
  0
VERTEX
  8
3
  6
CONTINUOUS
 10
20.924880
 20
14.421526
  0
VERTEX
  8
3
  6
CONTINUOUS
 10
20.912961
 20
14.378877
  0
VERTEX
  8
3
  6
CONTINUOUS
 10
20.903023
 20
14.307698
  0
VERTEX
  8
3
  6
CONTINUOUS
 10
20.905715
 20
14.229396
  0
VERTEX
  8
3
  6
CONTINUOUS
 10
20.919930
 20
14.161045
  0
VERTEX
  8
3
  6
CONTINUOUS
 10
20.931133
 20
14.127877
  0
VERTEX
  8
3
  6
CONTINUOUS
 10
20.951110
 20
14.083409
  0
SEQEND
  8
3
  6
CONTINUOUS
  0
POLYLINE
  8
3
  6
CONTINUOUS
 66
     1
  0
VERTEX
  8
3
  6
CONTINUOUS
 10
28.189972
 20
14.265611
  0
VERTEX
  8
3
  6
CONTINUOUS
 10
28.204646
 20
14.296901
  0
VERTEX
  8
3
  6
CONTINUOUS
 10
28.216200
 20
14.327493
  0
VERTEX
  8
3
  6
CONTINUOUS
 10
28.228119
 20
14.370142
  0
VERTEX
  8
3
  6
CONTINUOUS
 10
28.238058
 20
14.441322
  0
VERTEX
  8
3
  6
CONTINUOUS
 10
28.235367
 20
14.519624
  0
VERTEX
  8
3
  6
CONTINUOUS
 10
28.221151
 20
14.587975
  0
VERTEX
  8
3
  6
CONTINUOUS
 10
28.209947
 20
14.621143
  0
VERTEX
  8
3
  6
CONTINUOUS
 10
28.189972
 20
14.665611
  0
SEQEND
  8
3
  6
CONTINUOUS
  0
POLYLINE
  8
3
  6
CONTINUOUS
 66
     1
  0
VERTEX
  8
3
  6
CONTINUOUS
 10
28.189972
 20
15.065611
  0
VERTEX
  8
3
  6
CONTINUOUS
 10
28.175296
 20
15.034322
  0
VERTEX
  8
3
  6
CONTINUOUS
 10
28.163742
 20
15.003729
  0
VERTEX
  8
3
  6
CONTINUOUS
 10
28.151823
 20
14.961080
  0
VERTEX
  8
3
  6
CONTINUOUS
 10
28.141885
 20
14.889901
  0
VERTEX
  8
3
  6
CONTINUOUS
 10
28.144577
 20
14.811599
  0
VERTEX
  8
3
  6
CONTINUOUS
 10
28.158792
 20
14.743248
  0
VERTEX
  8
3
  6
CONTINUOUS
 10
28.169995
 20
14.710080
  0
VERTEX
  8
3
  6
CONTINUOUS
 10
28.189972
 20
14.665612
  0
SEQEND
  8
3
  6
CONTINUOUS
  0
POLYLINE
  8
3
  6
CONTINUOUS
 66
     1
  0
VERTEX
  8
3
  6
CONTINUOUS
 10
28.189972
 20
15.065611
  0
VERTEX
  8
3
  6
CONTINUOUS
 10
28.204646
 20
15.096901
  0
VERTEX
  8
3
  6
CONTINUOUS
 10
28.216200
 20
15.127493
  0
VERTEX
  8
3
  6
CONTINUOUS
 10
28.228119
 20
15.170142
  0
VERTEX
  8
3
  6
CONTINUOUS
 10
28.238058
 20
15.241322
  0
VERTEX
  8
3
  6
CONTINUOUS
 10
28.235367
 20
15.319624
  0
VERTEX
  8
3
  6
CONTINUOUS
 10
28.221151
 20
15.387975
  0
VERTEX
  8
3
  6
CONTINUOUS
 10
28.209947
 20
15.421143
  0
VERTEX
  8
3
  6
CONTINUOUS
 10
28.189972
 20
15.465611
  0
SEQEND
  8
3
  6
CONTINUOUS
  0
POLYLINE
  8
3
  6
CONTINUOUS
 66
     1
  0
VERTEX
  8
3
  6
CONTINUOUS
 10
28.189972
 20
15.865611
  0
VERTEX
  8
3
  6
CONTINUOUS
 10
28.175296
 20
15.834322
  0
VERTEX
  8
3
  6
CONTINUOUS
 10
28.163742
 20
15.803729
  0
VERTEX
  8
3
  6
CONTINUOUS
 10
28.151823
 20
15.761080
  0
VERTEX
  8
3
  6
CONTINUOUS
 10
28.141885
 20
15.689901
  0
VERTEX
  8
3
  6
CONTINUOUS
 10
28.144577
 20
15.611599
  0
VERTEX
  8
3
  6
CONTINUOUS
 10
28.158792
 20
15.543248
  0
VERTEX
  8
3
  6
CONTINUOUS
 10
28.169995
 20
15.510080
  0
VERTEX
  8
3
  6
CONTINUOUS
 10
28.189972
 20
15.465612
  0
SEQEND
  8
3
  6
CONTINUOUS
  0
POLYLINE
  8
3
  6
ESTILO_TQS_0001
 66
     1
  0
VERTEX
  8
3
  6
ESTILO_TQS_0001
 10
20.951110
 20
14.523632
  0
VERTEX
  8
3
  6
ESTILO_TQS_0001
 10
20.965711
 20
14.554765
  0
VERTEX
  8
3
  6
ESTILO_TQS_0001
 10
20.977207
 20
14.585205
  0
VERTEX
  8
3
  6
ESTILO_TQS_0001
 10
20.989067
 20
14.627642
  0
VERTEX
  8
3
  6
ESTILO_TQS_0001
 10
20.998957
 20
14.698466
  0
VERTEX
  8
3
  6
ESTILO_TQS_0001
 10
20.996278
 20
14.776378
  0
VERTEX
  8
3
  6
ESTILO_TQS_0001
 10
20.982134
 20
14.844388
  0
VERTEX
  8
3
  6
ESTILO_TQS_0001
 10
20.970985
 20
14.877391
  0
VERTEX
  8
3
  6
ESTILO_TQS_0001
 10
20.951110
 20
14.921638
  0
SEQEND
  8
3
  6
ESTILO_TQS_0001
  0
POLYLINE
  8
3
  6
ESTILO_TQS_0001
 66
     1
  0
VERTEX
  8
3
  6
ESTILO_TQS_0001
 10
20.951110
 20
15.319644
  0
VERTEX
  8
3
  6
ESTILO_TQS_0001
 10
20.936507
 20
15.288510
  0
VERTEX
  8
3
  6
ESTILO_TQS_0001
 10
20.925011
 20
15.258070
  0
VERTEX
  8
3
  6
ESTILO_TQS_0001
 10
20.913151
 20
15.215634
  0
VERTEX
  8
3
  6
ESTILO_TQS_0001
 10
20.903263
 20
15.144809
  0
VERTEX
  8
3
  6
ESTILO_TQS_0001
 10
20.905941
 20
15.066898
  0
VERTEX
  8
3
  6
ESTILO_TQS_0001
 10
20.920085
 20
14.998887
  0
VERTEX
  8
3
  6
ESTILO_TQS_0001
 10
20.931233
 20
14.965885
  0
VERTEX
  8
3
  6
ESTILO_TQS_0001
 10
20.951110
 20
14.921638
  0
SEQEND
  8
3
  6
ESTILO_TQS_0001
  0
POLYLINE
  8
3
  6
ESTILO_TQS_0001
 66
     1
  0
VERTEX
  8
3
  6
ESTILO_TQS_0001
 10
20.951110
 20
15.319644
  0
VERTEX
  8
3
  6
ESTILO_TQS_0001
 10
20.965728
 20
15.350815
  0
VERTEX
  8
3
  6
ESTILO_TQS_0001
 10
20.977239
 20
15.381291
  0
VERTEX
  8
3
  6
ESTILO_TQS_0001
 10
20.989112
 20
15.423778
  0
VERTEX
  8
3
  6
ESTILO_TQS_0001
 10
20.999014
 20
15.494687
  0
VERTEX
  8
3
  6
ESTILO_TQS_0001
 10
20.996332
 20
15.572692
  0
VERTEX
  8
3
  6
ESTILO_TQS_0001
 10
20.982171
 20
15.640784
  0
VERTEX
  8
3
  6
ESTILO_TQS_0001
 10
20.971009
 20
15.673826
  0
VERTEX
  8
3
  6
ESTILO_TQS_0001
 10
20.951110
 20
15.718126
  0
SEQEND
  8
3
  6
ESTILO_TQS_0001
  0
POLYLINE
  8
3
  6
ESTILO_TQS_0001
 66
     1
  0
VERTEX
  8
3
  6
ESTILO_TQS_0001
 10
20.951110
 20
16.116608
  0
VERTEX
  8
3
  6
ESTILO_TQS_0001
 10
20.936490
 20
16.085437
  0
VERTEX
  8
3
  6
ESTILO_TQS_0001
 10
20.924979
 20
16.054961
  0
VERTEX
  8
3
  6
ESTILO_TQS_0001
 10
20.913106
 20
16.012474
  0
VERTEX
  8
3
  6
ESTILO_TQS_0001
 10
20.903206
 20
15.941565
  0
VERTEX
  8
3
  6
ESTILO_TQS_0001
 10
20.905887
 20
15.863560
  0
VERTEX
  8
3
  6
ESTILO_TQS_0001
 10
20.920048
 20
15.795468
  0
VERTEX
  8
3
  6
ESTILO_TQS_0001
 10
20.931209
 20
15.762426
  0
VERTEX
  8
3
  6
ESTILO_TQS_0001
 10
20.951110
 20
15.718127
  0
SEQEND
  8
3
  6
ESTILO_TQS_0001
  0
POLYLINE
  8
3
  6
ESTILO_TQS_0001
 66
     1
  0
VERTEX
  8
3
  6
ESTILO_TQS_0001
 10
28.189972
 20
15.905611
  0
VERTEX
  8
3
  6
ESTILO_TQS_0001
 10
28.204687
 20
15.936988
  0
VERTEX
  8
3
  6
ESTILO_TQS_0001
 10
28.216273
 20
15.967665
  0
VERTEX
  8
3
  6
ESTILO_TQS_0001
 10
28.228224
 20
16.010432
  0
VERTEX
  8
3
  6
ESTILO_TQS_0001
 10
28.238192
 20
16.081809
  0
VERTEX
  8
3
  6
ESTILO_TQS_0001
 10
28.235492
 20
16.160328
  0
VERTEX
  8
3
  6
ESTILO_TQS_0001
 10
28.221238
 20
16.228869
  0
VERTEX
  8
3
  6
ESTILO_TQS_0001
 10
28.210002
 20
16.262129
  0
VERTEX
  8
3
  6
ESTILO_TQS_0001
 10
28.189972
 20
16.306721
  0
SEQEND
  8
3
  6
ESTILO_TQS_0001
  0
POLYLINE
  8
3
  6
ESTILO_TQS_0001
 66
     1
  0
VERTEX
  8
3
  6
ESTILO_TQS_0001
 10
28.189972
 20
16.707830
  0
VERTEX
  8
3
  6
ESTILO_TQS_0001
 10
28.175255
 20
16.676453
  0
VERTEX
  8
3
  6
ESTILO_TQS_0001
 10
28.163669
 20
16.645776
  0
VERTEX
  8
3
  6
ESTILO_TQS_0001
 10
28.151717
 20
16.603009
  0
VERTEX
  8
3
  6
ESTILO_TQS_0001
 10
28.141752
 20
16.531632
  0
VERTEX
  8
3
  6
ESTILO_TQS_0001
 10
28.144451
 20
16.453113
  0
VERTEX
  8
3
  6
ESTILO_TQS_0001
 10
28.158705
 20
16.384573
  0
VERTEX
  8
3
  6
ESTILO_TQS_0001
 10
28.169939
 20
16.351313
  0
VERTEX
  8
3
  6
ESTILO_TQS_0001
 10
28.189972
 20
16.306721
  0
SEQEND
  8
3
  6
ESTILO_TQS_0001
  0
POLYLINE
  8
3
  6
ESTILO_TQS_0001
 66
     1
  0
VERTEX
  8
3
  6
ESTILO_TQS_0001
 10
28.189972
 20
16.707830
  0
VERTEX
  8
3
  6
ESTILO_TQS_0001
 10
28.204687
 20
16.739206
  0
VERTEX
  8
3
  6
ESTILO_TQS_0001
 10
28.216273
 20
16.769883
  0
VERTEX
  8
3
  6
ESTILO_TQS_0001
 10
28.228224
 20
16.812651
  0
VERTEX
  8
3
  6
ESTILO_TQS_0001
 10
28.238192
 20
16.884027
  0
VERTEX
  8
3
  6
ESTILO_TQS_0001
 10
28.235492
 20
16.962547
  0
VERTEX
  8
3
  6
ESTILO_TQS_0001
 10
28.221238
 20
17.031087
  0
VERTEX
  8
3
  6
ESTILO_TQS_0001
 10
28.210002
 20
17.064347
  0
VERTEX
  8
3
  6
ESTILO_TQS_0001
 10
28.189972
 20
17.108939
  0
SEQEND
  8
3
  6
ESTILO_TQS_0001
  0
POLYLINE
  8
3
  6
ESTILO_TQS_0001
 66
     1
  0
VERTEX
  8
3
  6
ESTILO_TQS_0001
 10
28.189972
 20
17.510048
  0
VERTEX
  8
3
  6
ESTILO_TQS_0001
 10
28.175255
 20
17.478672
  0
VERTEX
  8
3
  6
ESTILO_TQS_0001
 10
28.163669
 20
17.447995
  0
VERTEX
  8
3
  6
ESTILO_TQS_0001
 10
28.151717
 20
17.405227
  0
VERTEX
  8
3
  6
ESTILO_TQS_0001
 10
28.141752
 20
17.333851
  0
VERTEX
  8
3
  6
ESTILO_TQS_0001
 10
28.144451
 20
17.255332
  0
VERTEX
  8
3
  6
ESTILO_TQS_0001
 10
28.158705
 20
17.186791
  0
VERTEX
  8
3
  6
ESTILO_TQS_0001
 10
28.169939
 20
17.153531
  0
VERTEX
  8
3
  6
ESTILO_TQS_0001
 10
28.189972
 20
17.108940
  0
SEQEND
  8
3
  6
ESTILO_TQS_0001
  0
LINE
  8
1
  6
CONTINUOUS
 10
33.072192
 20
13.827753
 11
33.127078
 21
13.882638
  0
LINE
  8
1
  6
CONTINUOUS
 10
32.541862
 20
13.827753
 11
32.596747
 21
13.882638
  0
LINE
  8
1
  6
CONTINUOUS
 10
32.861912
 20
14.147803
 11
33.127078
 21
14.412969
  0
LINE
  8
1
  6
CONTINUOUS
 10
32.011532
 20
13.827753
 11
32.066417
 21
13.882638
  0
LINE
  8
1
  6
CONTINUOUS
 10
32.331582
 20
14.147803
 11
32.596747
 21
14.412969
  0
LINE
  8
1
  6
CONTINUOUS
 10
32.861912
 20
14.678134
 11
33.127078
 21
14.943299
  0
LINE
  8
1
  6
CONTINUOUS
 10
31.977017
 20
14.323568
 11
32.066417
 21
14.412969
  0
LINE
  8
1
  6
CONTINUOUS
 10
32.331582
 20
14.678134
 11
32.596747
 21
14.943299
  0
LINE
  8
1
  6
CONTINUOUS
 10
32.861912
 20
15.208464
 11
33.127078
 21
15.473629
  0
LINE
  8
1
  6
CONTINUOUS
 10
32.217017
 20
15.093898
 11
32.217017
 21
15.093898
  0
LINE
  8
1
  6
CONTINUOUS
 10
32.331582
 20
15.208464
 11
32.596747
 21
15.473629
  0
LINE
  8
1
  6
CONTINUOUS
 10
32.861912
 20
15.738794
 11
33.127078
 21
16.003959
  0
LINE
  8
1
  6
CONTINUOUS
 10
32.217017
 20
15.624228
 11
32.217017
 21
15.624228
  0
LINE
  8
1
  6
CONTINUOUS
 10
32.331582
 20
15.738794
 11
32.596747
 21
16.003959
  0
LINE
  8
1
  6
CONTINUOUS
 10
32.861912
 20
16.269124
 11
33.127078
 21
16.534289
  0
LINE
  8
1
  6
CONTINUOUS
 10
32.217017
 20
16.154558
 11
32.217017
 21
16.154558
  0
LINE
  8
1
  6
CONTINUOUS
 10
32.331582
 20
16.269124
 11
32.596747
 21
16.534289
  0
LINE
  8
1
  6
CONTINUOUS
 10
32.861912
 20
16.799454
 11
33.057621
 21
16.995162
  0
LINE
  8
1
  6
CONTINUOUS
 10
32.217017
 20
16.684888
 11
32.217017
 21
16.684888
  0
LINE
  8
1
  6
CONTINUOUS
 10
32.331582
 20
16.799454
 11
32.527291
 21
16.995162
  0
LINE
  8
1
  6
CONTINUOUS
 10
32.873318
 20
13.827753
 11
33.027641
 21
13.982075
  0
LINE
  8
1
  6
CONTINUOUS
 10
33.292806
 20
14.247240
 11
33.335394
 21
14.289829
  0
LINE
  8
1
  6
CONTINUOUS
 10
32.342988
 20
13.827753
 11
32.497311
 21
13.982075
  0
LINE
  8
1
  6
CONTINUOUS
 10
32.762476
 20
14.247240
 11
33.027641
 21
14.512405
  0
LINE
  8
1
  6
CONTINUOUS
 10
33.292806
 20
14.777570
 11
33.335394
 21
14.820159
  0
LINE
  8
1
  6
CONTINUOUS
 10
31.977017
 20
13.992112
 11
31.977017
 21
13.992112
  0
LINE
  8
1
  6
CONTINUOUS
 10
32.232146
 20
14.247240
 11
32.497311
 21
14.512405
  0
LINE
  8
1
  6
CONTINUOUS
 10
32.762476
 20
14.777570
 11
33.027641
 21
15.042735
  0
LINE
  8
1
  6
CONTINUOUS
 10
33.292806
 20
15.307901
 11
33.335394
 21
15.350489
  0
LINE
  8
1
  6
CONTINUOUS
 10
31.977017
 20
14.522442
 11
31.977017
 21
14.522442
  0
LINE
  8
1
  6
CONTINUOUS
 10
32.217017
 20
14.762442
 11
32.217017
 21
14.762442
  0
LINE
  8
1
  6
CONTINUOUS
 10
32.232146
 20
14.777570
 11
32.497311
 21
15.042735
  0
LINE
  8
1
  6
CONTINUOUS
 10
32.762476
 20
15.307901
 11
33.027641
 21
15.573066
  0
LINE
  8
1
  6
CONTINUOUS
 10
33.292806
 20
15.838231
 11
33.335394
 21
15.880819
  0
LINE
  8
1
  6
CONTINUOUS
 10
32.217017
 20
15.292772
 11
32.217017
 21
15.292772
  0
LINE
  8
1
  6
CONTINUOUS
 10
32.232146
 20
15.307901
 11
32.497311
 21
15.573066
  0
LINE
  8
1
  6
CONTINUOUS
 10
32.762476
 20
15.838231
 11
33.027641
 21
16.103396
  0
LINE
  8
1
  6
CONTINUOUS
 10
33.292806
 20
16.368561
 11
33.335394
 21
16.411149
  0
LINE
  8
1
  6
CONTINUOUS
 10
32.217017
 20
15.823102
 11
32.217017
 21
15.823102
  0
LINE
  8
1
  6
CONTINUOUS
 10
32.232146
 20
15.838231
 11
32.497311
 21
16.103396
  0
LINE
  8
1
  6
CONTINUOUS
 10
32.762476
 20
16.368561
 11
33.027641
 21
16.633726
  0
LINE
  8
1
  6
CONTINUOUS
 10
33.292806
 20
16.898891
 11
33.335394
 21
16.941479
  0
LINE
  8
1
  6
CONTINUOUS
 10
32.217017
 20
16.353432
 11
32.217017
 21
16.353432
  0
LINE
  8
1
  6
CONTINUOUS
 10
32.232146
 20
16.368561
 11
32.497311
 21
16.633726
  0
LINE
  8
1
  6
CONTINUOUS
 10
32.762476
 20
16.898891
 11
32.858747
 21
16.995162
  0
LINE
  8
1
  6
CONTINUOUS
 10
32.217017
 20
16.883762
 11
32.217017
 21
16.883762
  0
LINE
  8
1
  6
CONTINUOUS
 10
32.232146
 20
16.898891
 11
32.328417
 21
16.995162
  0
LINE
  8
1
  6
CONTINUOUS
 10
33.204774
 20
13.827753
 11
33.335394
 21
13.958372
  0
LINE
  8
1
  6
CONTINUOUS
 10
32.674444
 20
13.827753
 11
32.928204
 21
14.081512
  0
LINE
  8
1
  6
CONTINUOUS
 10
33.193369
 20
14.346677
 11
33.335394
 21
14.488702
  0
LINE
  8
1
  6
CONTINUOUS
 10
32.144114
 20
13.827753
 11
32.397874
 21
14.081512
  0
LINE
  8
1
  6
CONTINUOUS
 10
32.663039
 20
14.346677
 11
32.928204
 21
14.611842
  0
LINE
  8
1
  6
CONTINUOUS
 10
33.193369
 20
14.877007
 11
33.335394
 21
15.019032
  0
LINE
  8
1
  6
CONTINUOUS
 10
31.977017
 20
14.190985
 11
31.977017
 21
14.190985
  0
LINE
  8
1
  6
CONTINUOUS
 10
32.132709
 20
14.346677
 11
32.397874
 21
14.611842
  0
LINE
  8
1
  6
CONTINUOUS
 10
32.663039
 20
14.877007
 11
32.928204
 21
15.142172
  0
LINE
  8
1
  6
CONTINUOUS
 10
33.193369
 20
15.407337
 11
33.335394
 21
15.549363
  0
LINE
  8
1
  6
CONTINUOUS
 10
32.217017
 20
14.961315
 11
32.397874
 21
15.142172
  0
LINE
  8
1
  6
CONTINUOUS
 10
32.663039
 20
15.407337
 11
32.928204
 21
15.672502
  0
LINE
  8
1
  6
CONTINUOUS
 10
33.193369
 20
15.937667
 11
33.335394
 21
16.079693
  0
LINE
  8
1
  6
CONTINUOUS
 10
32.217017
 20
15.491645
 11
32.397874
 21
15.672502
  0
LINE
  8
1
  6
CONTINUOUS
 10
32.663039
 20
15.937667
 11
32.928204
 21
16.202833
  0
LINE
  8
1
  6
CONTINUOUS
 10
33.193369
 20
16.467998
 11
33.335394
 21
16.610023
  0
LINE
  8
1
  6
CONTINUOUS
 10
32.217017
 20
16.021976
 11
32.397874
 21
16.202833
  0
LINE
  8
1
  6
CONTINUOUS
 10
32.663039
 20
16.467998
 11
32.928204
 21
16.733163
  0
LINE
  8
1
  6
CONTINUOUS
 10
32.217017
 20
16.552306
 11
32.397874
 21
16.733163
  0
LINE
  8
1
  6
CONTINUOUS
 10
32.187594
 20
13.827753
 11
32.187594
 21
13.827753
  0
LINE
  8
1
  6
CONTINUOUS
 10
32.132709
 20
13.882638
 11
31.977017
 21
14.038330
  0
LINE
  8
1
  6
CONTINUOUS
 10
32.717924
 20
13.827753
 11
32.717924
 21
13.827753
  0
LINE
  8
1
  6
CONTINUOUS
 10
32.663039
 20
13.882638
 11
32.397874
 21
14.147803
  0
LINE
  8
1
  6
CONTINUOUS
 10
32.132709
 20
14.412969
 11
31.977017
 21
14.568660
  0
LINE
  8
1
  6
CONTINUOUS
 10
33.248255
 20
13.827753
 11
33.248255
 21
13.827753
  0
LINE
  8
1
  6
CONTINUOUS
 10
33.193369
 20
13.882638
 11
32.928204
 21
14.147803
  0
LINE
  8
1
  6
CONTINUOUS
 10
32.663039
 20
14.412969
 11
32.397874
 21
14.678134
  0
LINE
  8
1
  6
CONTINUOUS
 10
33.335394
 20
14.270943
 11
33.335394
 21
14.270943
  0
LINE
  8
1
  6
CONTINUOUS
 10
33.193369
 20
14.412969
 11
32.928204
 21
14.678134
  0
LINE
  8
1
  6
CONTINUOUS
 10
32.663039
 20
14.943299
 11
32.397874
 21
15.208464
  0
LINE
  8
1
  6
CONTINUOUS
 10
33.335394
 20
14.801273
 11
33.335394
 21
14.801273
  0
LINE
  8
1
  6
CONTINUOUS
 10
33.193369
 20
14.943299
 11
32.928204
 21
15.208464
  0
LINE
  8
1
  6
CONTINUOUS
 10
32.663039
 20
15.473629
 11
32.397874
 21
15.738794
  0
LINE
  8
1
  6
CONTINUOUS
 10
33.335394
 20
15.331604
 11
33.335394
 21
15.331604
  0
LINE
  8
1
  6
CONTINUOUS
 10
33.193369
 20
15.473629
 11
32.928204
 21
15.738794
  0
LINE
  8
1
  6
CONTINUOUS
 10
32.663039
 20
16.003959
 11
32.397874
 21
16.269124
  0
LINE
  8
1
  6
CONTINUOUS
 10
33.335394
 20
15.861934
 11
33.335394
 21
15.861934
  0
LINE
  8
1
  6
CONTINUOUS
 10
33.193369
 20
16.003959
 11
32.928204
 21
16.269124
  0
LINE
  8
1
  6
CONTINUOUS
 10
32.663039
 20
16.534289
 11
32.397874
 21
16.799454
  0
LINE
  8
1
  6
CONTINUOUS
 10
33.335394
 20
16.392264
 11
33.335394
 21
16.392264
  0
LINE
  8
1
  6
CONTINUOUS
 10
33.193369
 20
16.534289
 11
32.928204
 21
16.799454
  0
LINE
  8
1
  6
CONTINUOUS
 10
33.335394
 20
16.922594
 11
33.335394
 21
16.922594
  0
LINE
  8
1
  6
CONTINUOUS
 10
32.386468
 20
13.827753
 11
32.386468
 21
13.827753
  0
LINE
  8
1
  6
CONTINUOUS
 10
32.232146
 20
13.982075
 11
31.977017
 21
14.237204
  0
LINE
  8
1
  6
CONTINUOUS
 10
32.916798
 20
13.827753
 11
32.916798
 21
13.827753
  0
LINE
  8
1
  6
CONTINUOUS
 10
32.762476
 20
13.982075
 11
32.497311
 21
14.247240
  0
LINE
  8
1
  6
CONTINUOUS
 10
32.232146
 20
14.512405
 11
32.141660
 21
14.602891
  0
LINE
  8
1
  6
CONTINUOUS
 10
33.335394
 20
13.939487
 11
33.335394
 21
13.939487
  0
LINE
  8
1
  6
CONTINUOUS
 10
33.292806
 20
13.982075
 11
33.027641
 21
14.247240
  0
LINE
  8
1
  6
CONTINUOUS
 10
32.762476
 20
14.512405
 11
32.497311
 21
14.777570
  0
LINE
  8
1
  6
CONTINUOUS
 10
32.232146
 20
15.042735
 11
32.217017
 21
15.057864
  0
LINE
  8
1
  6
CONTINUOUS
 10
33.335394
 20
14.469817
 11
33.335394
 21
14.469817
  0
LINE
  8
1
  6
CONTINUOUS
 10
33.292806
 20
14.512405
 11
33.027641
 21
14.777570
  0
LINE
  8
1
  6
CONTINUOUS
 10
32.762476
 20
15.042735
 11
32.497311
 21
15.307901
  0
LINE
  8
1
  6
CONTINUOUS
 10
32.232146
 20
15.573066
 11
32.217017
 21
15.588194
  0
LINE
  8
1
  6
CONTINUOUS
 10
33.335394
 20
15.000147
 11
33.335394
 21
15.000147
  0
LINE
  8
1
  6
CONTINUOUS
 10
33.292806
 20
15.042735
 11
33.027641
 21
15.307901
  0
LINE
  8
1
  6
CONTINUOUS
 10
32.762476
 20
15.573066
 11
32.497311
 21
15.838231
  0
LINE
  8
1
  6
CONTINUOUS
 10
32.232146
 20
16.103396
 11
32.217017
 21
16.118524
  0
LINE
  8
1
  6
CONTINUOUS
 10
33.335394
 20
15.530477
 11
33.335394
 21
15.530477
  0
LINE
  8
1
  6
CONTINUOUS
 10
33.292806
 20
15.573066
 11
33.027641
 21
15.838231
  0
LINE
  8
1
  6
CONTINUOUS
 10
32.762476
 20
16.103396
 11
32.497311
 21
16.368561
  0
LINE
  8
1
  6
CONTINUOUS
 10
32.232146
 20
16.633726
 11
32.217017
 21
16.648855
  0
LINE
  8
1
  6
CONTINUOUS
 10
33.335394
 20
16.060807
 11
33.335394
 21
16.060807
  0
LINE
  8
1
  6
CONTINUOUS
 10
33.292806
 20
16.103396
 11
33.027641
 21
16.368561
  0
LINE
  8
1
  6
CONTINUOUS
 10
32.762476
 20
16.633726
 11
32.497311
 21
16.898891
  0
LINE
  8
1
  6
CONTINUOUS
 10
33.335394
 20
16.591137
 11
33.335394
 21
16.591137
  0
LINE
  8
1
  6
CONTINUOUS
 10
33.292806
 20
16.633726
 11
33.027641
 21
16.898891
  0
LINE
  8
1
  6
CONTINUOUS
 10
32.055012
 20
13.827753
 11
32.055012
 21
13.827753
  0
LINE
  8
1
  6
CONTINUOUS
 10
32.585342
 20
13.827753
 11
32.585342
 21
13.827753
  0
LINE
  8
1
  6
CONTINUOUS
 10
32.331582
 20
14.081512
 11
32.066417
 21
14.346677
  0
LINE
  8
1
  6
CONTINUOUS
 10
33.115672
 20
13.827753
 11
33.115672
 21
13.827753
  0
LINE
  8
1
  6
CONTINUOUS
 10
32.861912
 20
14.081512
 11
32.596747
 21
14.346677
  0
LINE
  8
1
  6
CONTINUOUS
 10
32.331582
 20
14.611842
 11
32.217017
 21
14.726408
  0
LINE
  8
1
  6
CONTINUOUS
 10
33.335394
 20
14.138361
 11
33.127078
 21
14.346677
  0
LINE
  8
1
  6
CONTINUOUS
 10
32.861912
 20
14.611842
 11
32.596747
 21
14.877007
  0
LINE
  8
1
  6
CONTINUOUS
 10
32.331582
 20
15.142172
 11
32.217017
 21
15.256738
  0
LINE
  8
1
  6
CONTINUOUS
 10
33.335394
 20
14.668691
 11
33.127078
 21
14.877007
  0
LINE
  8
1
  6
CONTINUOUS
 10
32.861912
 20
15.142172
 11
32.596747
 21
15.407337
  0
LINE
  8
1
  6
CONTINUOUS
 10
32.331582
 20
15.672502
 11
32.217017
 21
15.787068
  0
LINE
  8
1
  6
CONTINUOUS
 10
33.335394
 20
15.199021
 11
33.127078
 21
15.407337
  0
LINE
  8
1
  6
CONTINUOUS
 10
32.861912
 20
15.672502
 11
32.596747
 21
15.937667
  0
LINE
  8
1
  6
CONTINUOUS
 10
32.331582
 20
16.202833
 11
32.217017
 21
16.317398
  0
LINE
  8
1
  6
CONTINUOUS
 10
33.335394
 20
15.729351
 11
33.127078
 21
15.937667
  0
LINE
  8
1
  6
CONTINUOUS
 10
32.861912
 20
16.202833
 11
32.596747
 21
16.467998
  0
LINE
  8
1
  6
CONTINUOUS
 10
32.331582
 20
16.733163
 11
32.217017
 21
16.847728
  0
LINE
  8
1
  6
CONTINUOUS
 10
33.335394
 20
16.259681
 11
33.127078
 21
16.467998
  0
LINE
  8
1
  6
CONTINUOUS
 10
32.861912
 20
16.733163
 11
32.599913
 21
16.995162
  0
LINE
  8
1
  6
CONTINUOUS
 10
33.335394
 20
16.790011
 11
33.130243
 21
16.995162
  0
TEXT
  8
3
  6
CONTINUOUS
 10
21.228299
 20
23.736605
 40
0.250000
  1
ESC. - 1:50
  0
LINE
  8
3
  6
CONTINUOUS
 10
22.662340
 20
14.839880
 11
23.520832
 21
14.839880
  0
LINE
  8
3
  6
CONTINUOUS
 10
23.822340
 20
14.954054
 11
23.822340
 21
15.839880
  0
LINE
  8
3
  6
CONTINUOUS
 10
22.662340
 20
15.839880
 11
23.822340
 21
15.839880
  0
LINE
  8
3
  6
CONTINUOUS
 10
22.662340
 20
14.514790
 11
22.662340
 21
14.839880
  0
LINE
  8
3
  6
CONTINUOUS
 10
22.662340
 20
15.839880
 11
22.662340
 21
17.878789
  0
LINE
  8
1
  6
CONTINUOUS
 10
23.822340
 20
15.839880
 11
22.662340
 21
14.839880
  0
LINE
  8
1
  6
CONTINUOUS
 10
22.662340
 20
15.839880
 11
23.730320
 21
14.919208
  0
POLYLINE
  8
3
  6
CONTINUOUS
 66
     1
  0
VERTEX
  8
3
  6
CONTINUOUS
 10
22.722340
 20
17.218130
  0
VERTEX
  8
3
  6
CONTINUOUS
 10
26.254718
 20
18.555756
  0
SEQEND
  8
3
  6
CONTINUOUS
  0
POLYLINE
  8
3
  6
CONTINUOUS
 66
     1
  0
VERTEX
  8
3
  6
CONTINUOUS
 10
25.244532
 20
18.788809
  0
VERTEX
  8
3
  6
CONTINUOUS
 10
25.244532
 20
14.892603
  0
SEQEND
  8
3
  6
CONTINUOUS
  0
POLYLINE
  8
3
  6
CONTINUOUS
 66
     1
  0
VERTEX
  8
3
  6
CONTINUOUS
 10
31.980417
 20
15.202891
  0
VERTEX
  8
3
  6
CONTINUOUS
 10
31.980417
 20
19.099491
  0
VERTEX
  8
3
  6
CONTINUOUS
 10
32.157017
 20
19.099491
  0
SEQEND
  8
3
  6
CONTINUOUS
  0
POLYLINE
  8
3
  6
CONTINUOUS
 66
     1
  0
VERTEX
  8
3
  6
CONTINUOUS
 10
32.153617
 20
15.202891
  0
VERTEX
  8
3
  6
CONTINUOUS
 10
32.153617
 20
19.099491
  0
VERTEX
  8
3
  6
CONTINUOUS
 10
31.977017
 20
19.099491
  0
SEQEND
  8
3
  6
CONTINUOUS
  0
TEXT
  8
8
  6
CONTINUOUS
 10
21.077764
 20
24.406335
 40
0.500000
  1
FECHAMENTO ENTRE TABULEIROS
  0
POLYLINE
  8
7
  6
CONTINUOUS
 66
     1
  0
VERTEX
  8
7
  6
CONTINUOUS
 10
29.645399
 20
15.202891
  0
VERTEX
  8
7
  6
CONTINUOUS
 10
29.645399
 20
19.099491
  0
VERTEX
  8
7
  6
CONTINUOUS
 10
29.821999
 20
19.099491
  0
SEQEND
  8
7
  6
CONTINUOUS
  0
POLYLINE
  8
7
  6
CONTINUOUS
 66
     1
  0
VERTEX
  8
7
  6
CONTINUOUS
 10
29.918599
 20
15.102891
  0
VERTEX
  8
7
  6
CONTINUOUS
 10
29.918599
 20
18.999491
  0
VERTEX
  8
7
  6
CONTINUOUS
 10
29.741999
 20
18.999491
  0
SEQEND
  8
7
  6
CONTINUOUS
  0
CIRCLE
  8
7
  6
CONTINUOUS
 10
31.996417
 20
19.083491
 40
0.016000
  0
CIRCLE
  8
7
  6
CONTINUOUS
 10
32.137617
 20
19.083491
 40
0.016000
  0
CIRCLE
  8
7
  6
CONTINUOUS
 10
31.996417
 20
18.783491
 40
0.016000
  0
CIRCLE
  8
7
  6
CONTINUOUS
 10
32.137617
 20
18.783491
 40
0.016000
  0
CIRCLE
  8
7
  6
CONTINUOUS
 10
31.996417
 20
18.483491
 40
0.016000
  0
CIRCLE
  8
7
  6
CONTINUOUS
 10
32.137617
 20
18.483491
 40
0.016000
  0
CIRCLE
  8
7
  6
CONTINUOUS
 10
31.996417
 20
18.183491
 40
0.016000
  0
CIRCLE
  8
7
  6
CONTINUOUS
 10
32.137617
 20
18.183491
 40
0.016000
  0
CIRCLE
  8
7
  6
CONTINUOUS
 10
31.996417
 20
17.883491
 40
0.016000
  0
CIRCLE
  8
7
  6
CONTINUOUS
 10
32.137617
 20
17.883491
 40
0.016000
  0
CIRCLE
  8
7
  6
CONTINUOUS
 10
31.996417
 20
17.583491
 40
0.016000
  0
CIRCLE
  8
7
  6
CONTINUOUS
 10
32.137617
 20
17.583491
 40
0.016000
  0
CIRCLE
  8
7
  6
CONTINUOUS
 10
31.996417
 20
17.283491
 40
0.016000
  0
CIRCLE
  8
7
  6
CONTINUOUS
 10
32.137617
 20
17.283491
 40
0.016000
  0
CIRCLE
  8
7
  6
CONTINUOUS
 10
31.996417
 20
16.983491
 40
0.016000
  0
CIRCLE
  8
7
  6
CONTINUOUS
 10
32.137617
 20
16.983491
 40
0.016000
  0
CIRCLE
  8
7
  6
CONTINUOUS
 10
31.996417
 20
16.683491
 40
0.016000
  0
CIRCLE
  8
7
  6
CONTINUOUS
 10
32.137617
 20
16.683491
 40
0.016000
  0
CIRCLE
  8
7
  6
CONTINUOUS
 10
31.996417
 20
16.383491
 40
0.016000
  0
CIRCLE
  8
7
  6
CONTINUOUS
 10
32.137617
 20
16.383491
 40
0.016000
  0
CIRCLE
  8
7
  6
CONTINUOUS
 10
31.996417
 20
16.083491
 40
0.016000
  0
CIRCLE
  8
7
  6
CONTINUOUS
 10
32.137617
 20
16.083491
 40
0.016000
  0
LINE
  8
3
  6
ESTILO_TQS_0001
 10
31.917017
 20
19.162891
 11
29.645399
 21
19.162891
  0
POLYLINE
  8
7
  6
CONTINUOUS
 66
     1
  0
VERTEX
  8
7
  6
CONTINUOUS
 10
22.722340
 20
11.600402
  0
VERTEX
  8
7
  6
CONTINUOUS
 10
26.254718
 20
12.938028
  0
SEQEND
  8
7
  6
CONTINUOUS
  0
LINE
  8
3
  6
ESTILO_TQS_0001
 10
26.254718
 20
12.938028
 11
26.254718
 21
19.171342
  0
LINE
  8
4
  6
CONTINUOUS
 10
31.244834
 20
16.083491
 11
31.244834
 21
19.083491
  0
LINE
  8
4
  6
CONTINUOUS
 10
32.037617
 20
16.083491
 11
31.094834
 21
16.083491
  0
LINE
  8
4
  6
CONTINUOUS
 10
32.037617
 20
19.083491
 11
31.094834
 21
19.083491
  0
LINE
  8
3
  6
CONTINUOUS
 10
31.244834
 20
16.083491
 11
31.212202
 21
16.331352
  0
LINE
  8
3
  6
CONTINUOUS
 10
31.244834
 20
16.083491
 11
31.277465
 21
16.331352
  0
LINE
  8
3
  6
CONTINUOUS
 10
31.244834
 20
19.083491
 11
31.277465
 21
18.835630
  0
LINE
  8
3
  6
CONTINUOUS
 10
31.244834
 20
19.083491
 11
31.212202
 21
18.835630
  0
LINE
  8
4
  6
CONTINUOUS
 10
22.662340
 20
19.195609
 11
26.314718
 21
20.578676
  0
LINE
  8
4
  6
CONTINUOUS
 10
26.314718
 20
19.261856
 11
26.314718
 21
20.875735
  0
LINE
  8
4
  6
CONTINUOUS
 10
22.662340
 20
17.878789
 11
22.662340
 21
19.492668
  0
POLYLINE
  8
3
  6
CONTINUOUS
 66
     1
  0
VERTEX
  8
3
  6
CONTINUOUS
 10
22.764483
 20
19.234288
  0
VERTEX
  8
3
  6
CONTINUOUS
 10
22.662340
 20
19.195609
  0
VERTEX
  8
3
  6
CONTINUOUS
 10
22.882583
 20
19.313902
  0
VERTEX
  8
3
  6
CONTINUOUS
 10
22.662340
 20
19.195609
  0
VERTEX
  8
3
  6
CONTINUOUS
 10
22.905695
 20
19.252869
  0
SEQEND
  8
3
  6
CONTINUOUS
  0
POLYLINE
  8
3
  6
CONTINUOUS
 66
     1
  0
VERTEX
  8
3
  6
CONTINUOUS
 10
26.262471
 20
20.558891
  0
VERTEX
  8
3
  6
CONTINUOUS
 10
26.314718
 20
20.578676
  0
VERTEX
  8
3
  6
CONTINUOUS
 10
26.094476
 20
20.460383
  0
VERTEX
  8
3
  6
CONTINUOUS
 10
26.314718
 20
20.578676
  0
VERTEX
  8
3
  6
CONTINUOUS
 10
26.071364
 20
20.521417
  0
SEQEND
  8
3
  6
CONTINUOUS
  0
TEXT
  8
5
  6
CONTINUOUS
 10
30.188599
 20
16.601191
 40
0.180000
 50
90.000000
  1
 195 
  0
TEXT
  8
5
  6
CONTINUOUS
 10
29.534674
 20
19.268868
 40
0.180000
 50
360.000000
  1
 9 
  0
TEXT
  8
5
  6
CONTINUOUS
 10
29.500170
 20
15.490050
 40
0.180000
 50
90.000000
  1
2x12 N14 %%c 6.3 C/15 C=204
  0
TEXT
  8
5
  6
CONTINUOUS
 10
23.514048
 20
19.636702
 40
0.180000
 50
21.000000
  1
2x12 N14 %%c 6.3 C/15
  0
TEXT
  8
3
  6
CONTINUOUS
 10
25.117941
 20
14.532767
 40
0.180000
 50
90.000000
  1
2x12 N14 %%c 6.3 C/15
  0
TEXT
  8
3
  6
CONTINUOUS
 10
21.228299
 20
22.880097
 40
0.250000
  1
(CORTAR E DOBRAR OS FERROS NA REGIÃO DO VAZIO)
  0
POLYLINE
  8
3
  6
CONTINUOUS
 66
     1
  0
VERTEX
  8
3
  6
CONTINUOUS
 10
57.316607
 20
48.090372
  0
VERTEX
  8
3
  6
CONTINUOUS
 10
57.140007
 20
48.090372
  0
VERTEX
  8
3
  6
CONTINUOUS
 10
57.140007
 20
45.500555
  0
VERTEX
  8
3
  6
CONTINUOUS
 10
57.316607
 20
45.446047
  0
SEQEND
  8
3
  6
CONTINUOUS
  0
POLYLINE
  8
3
  6
CONTINUOUS
 66
     1
  0
VERTEX
  8
3
  6
CONTINUOUS
 10
57.136607
 20
45.501604
  0
VERTEX
  8
3
  6
CONTINUOUS
 10
57.313207
 20
45.447097
  0
VERTEX
  8
3
  6
CONTINUOUS
 10
57.313207
 20
48.090372
  0
VERTEX
  8
3
  6
CONTINUOUS
 10
57.136607
 20
48.090372
  0
SEQEND
  8
3
  6
CONTINUOUS
  0
CIRCLE
  8
7
  6
CONTINUOUS
 10
57.293207
 20
48.070372
 40
0.020000
  0
CIRCLE
  8
7
  6
CONTINUOUS
 10
57.160007
 20
48.070372
 40
0.020000
  0
POLYLINE
  8
7
  6
CONTINUOUS
 66
     1
  0
VERTEX
  8
7
  6
CONTINUOUS
 10
54.554989
 20
48.090372
  0
VERTEX
  8
7
  6
CONTINUOUS
 10
54.378389
 20
48.090372
  0
VERTEX
  8
7
  6
CONTINUOUS
 10
54.378389
 20
45.500555
  0
VERTEX
  8
7
  6
CONTINUOUS
 10
54.554989
 20
45.446047
  0
SEQEND
  8
7
  6
CONTINUOUS
  0
POLYLINE
  8
7
  6
CONTINUOUS
 66
     1
  0
VERTEX
  8
7
  6
CONTINUOUS
 10
55.106720
 20
45.501604
  0
VERTEX
  8
7
  6
CONTINUOUS
 10
55.283320
 20
45.447097
  0
VERTEX
  8
7
  6
CONTINUOUS
 10
55.283320
 20
48.090372
  0
VERTEX
  8
7
  6
CONTINUOUS
 10
55.106720
 20
48.090372
  0
SEQEND
  8
7
  6
CONTINUOUS
  0
LINE
  8
4
  6
CONTINUOUS
 10
57.160007
 20
46.570372
 11
56.424646
 21
46.570372
  0
LINE
  8
4
  6
CONTINUOUS
 10
56.565067
 20
46.570372
 11
56.565067
 21
48.070372
  0
LINE
  8
4
  6
CONTINUOUS
 10
56.424646
 20
48.070372
 11
57.160007
 21
48.070372
  0
POLYLINE
  8
3
  6
CONTINUOUS
 66
     1
  0
VERTEX
  8
3
  6
CONTINUOUS
 10
56.565067
 20
47.986255
  0
VERTEX
  8
3
  6
CONTINUOUS
 10
56.565067
 20
48.070372
  0
VERTEX
  8
3
  6
CONTINUOUS
 10
56.597698
 20
47.822511
  0
VERTEX
  8
3
  6
CONTINUOUS
 10
56.565067
 20
48.070372
  0
VERTEX
  8
3
  6
CONTINUOUS
 10
56.532435
 20
47.822511
  0
SEQEND
  8
3
  6
CONTINUOUS
  0
POLYLINE
  8
3
  6
CONTINUOUS
 66
     1
  0
VERTEX
  8
3
  6
CONTINUOUS
 10
56.565067
 20
46.657297
  0
VERTEX
  8
3
  6
CONTINUOUS
 10
56.565067
 20
46.570372
  0
VERTEX
  8
3
  6
CONTINUOUS
 10
56.532435
 20
46.818233
  0
VERTEX
  8
3
  6
CONTINUOUS
 10
56.565067
 20
46.570372
  0
VERTEX
  8
3
  6
CONTINUOUS
 10
56.597698
 20
46.818233
  0
SEQEND
  8
3
  6
CONTINUOUS
  0
LINE
  8
3
  6
ESTILO_TQS_0001
 10
57.076607
 20
48.153772
 11
54.378389
 21
48.153772
  0
LINE
  8
3
  6
CONTINUOUS
 10
52.681048
 20
46.253772
 11
52.681048
 21
48.153772
  0
LINE
  8
3
  6
CONTINUOUS
 10
49.051048
 20
46.253772
 11
49.051048
 21
48.153772
  0
LINE
  8
3
  6
CONTINUOUS
 10
49.051048
 20
48.153772
 11
52.681048
 21
48.153772
  0
LINE
  8
3
  6
CONTINUOUS
 10
52.681048
 20
46.253772
 11
53.008968
 21
46.253772
  0
LINE
  8
3
  6
CONTINUOUS
 10
48.723127
 20
46.253772
 11
49.051048
 21
46.253772
  0
LINE
  8
3
  6
ESTILO_TQS_0001
 10
49.051048
 20
46.253772
 11
52.681048
 21
46.253772
  0
LINE
  8
3
  6
CONTINUOUS
 10
48.723127
 20
45.453772
 11
53.008968
 21
45.453772
  0
LINE
  8
3
  6
CONTINUOUS
 10
103.729165
 20
45.719755
 11
103.729165
 21
47.459755
  0
LINE
  8
3
  6
CONTINUOUS
 10
100.099165
 20
45.719755
 11
100.099165
 21
47.459755
  0
LINE
  8
3
  6
CONTINUOUS
 10
100.099165
 20
47.459755
 11
103.729165
 21
47.459755
  0
LINE
  8
3
  6
CONTINUOUS
 10
103.729165
 20
45.719755
 11
104.057086
 21
45.719755
  0
LINE
  8
3
  6
CONTINUOUS
 10
99.771244
 20
45.719755
 11
100.099165
 21
45.719755
  0
LINE
  8
3
  6
ESTILO_TQS_0001
 10
100.099165
 20
45.719755
 11
103.729165
 21
45.719755
  0
LINE
  8
3
  6
ESTILO_TQS_0001
 10
99.771244
 20
45.419755
 11
104.057086
 21
45.419755
  0
LINE
  8
3
  6
CONTINUOUS
 10
99.771244
 20
44.144066
 11
104.057086
 21
44.144066
  0
POLYLINE
  8
3
  6
CONTINUOUS
 66
     1
  0
VERTEX
  8
3
  6
CONTINUOUS
 10
48.723127
 20
46.253772
  0
VERTEX
  8
3
  6
CONTINUOUS
 10
48.708453
 20
46.222482
  0
VERTEX
  8
3
  6
CONTINUOUS
 10
48.696899
 20
46.191890
  0
VERTEX
  8
3
  6
CONTINUOUS
 10
48.684980
 20
46.149241
  0
VERTEX
  8
3
  6
CONTINUOUS
 10
48.675040
 20
46.078062
  0
VERTEX
  8
3
  6
CONTINUOUS
 10
48.677732
 20
45.999760
  0
VERTEX
  8
3
  6
CONTINUOUS
 10
48.691947
 20
45.931409
  0
VERTEX
  8
3
  6
CONTINUOUS
 10
48.703152
 20
45.898241
  0
VERTEX
  8
3
  6
CONTINUOUS
 10
48.723127
 20
45.853772
  0
SEQEND
  8
3
  6
CONTINUOUS
  0
POLYLINE
  8
3
  6
CONTINUOUS
 66
     1
  0
VERTEX
  8
3
  6
CONTINUOUS
 10
48.723127
 20
45.453772
  0
VERTEX
  8
3
  6
CONTINUOUS
 10
48.737803
 20
45.485062
  0
VERTEX
  8
3
  6
CONTINUOUS
 10
48.749357
 20
45.515654
  0
VERTEX
  8
3
  6
CONTINUOUS
 10
48.761276
 20
45.558303
  0
VERTEX
  8
3
  6
CONTINUOUS
 10
48.771214
 20
45.629482
  0
VERTEX
  8
3
  6
CONTINUOUS
 10
48.768522
 20
45.707784
  0
VERTEX
  8
3
  6
CONTINUOUS
 10
48.754307
 20
45.776135
  0
VERTEX
  8
3
  6
CONTINUOUS
 10
48.743104
 20
45.809303
  0
VERTEX
  8
3
  6
CONTINUOUS
 10
48.723127
 20
45.853771
  0
SEQEND
  8
3
  6
CONTINUOUS
  0
POLYLINE
  8
3
  6
CONTINUOUS
 66
     1
  0
VERTEX
  8
3
  6
CONTINUOUS
 10
53.008968
 20
46.253772
  0
VERTEX
  8
3
  6
CONTINUOUS
 10
52.994294
 20
46.222482
  0
VERTEX
  8
3
  6
CONTINUOUS
 10
52.982740
 20
46.191890
  0
VERTEX
  8
3
  6
CONTINUOUS
 10
52.970821
 20
46.149241
  0
VERTEX
  8
3
  6
CONTINUOUS
 10
52.960882
 20
46.078062
  0
VERTEX
  8
3
  6
CONTINUOUS
 10
52.963573
 20
45.999760
  0
VERTEX
  8
3
  6
CONTINUOUS
 10
52.977788
 20
45.931409
  0
VERTEX
  8
3
  6
CONTINUOUS
 10
52.988993
 20
45.898241
  0
VERTEX
  8
3
  6
CONTINUOUS
 10
53.008968
 20
45.853772
  0
SEQEND
  8
3
  6
CONTINUOUS
  0
POLYLINE
  8
3
  6
CONTINUOUS
 66
     1
  0
VERTEX
  8
3
  6
CONTINUOUS
 10
53.008968
 20
45.453772
  0
VERTEX
  8
3
  6
CONTINUOUS
 10
53.023644
 20
45.485062
  0
VERTEX
  8
3
  6
CONTINUOUS
 10
53.035198
 20
45.515654
  0
VERTEX
  8
3
  6
CONTINUOUS
 10
53.047117
 20
45.558303
  0
VERTEX
  8
3
  6
CONTINUOUS
 10
53.057055
 20
45.629482
  0
VERTEX
  8
3
  6
CONTINUOUS
 10
53.054363
 20
45.707784
  0
VERTEX
  8
3
  6
CONTINUOUS
 10
53.040148
 20
45.776135
  0
VERTEX
  8
3
  6
CONTINUOUS
 10
53.028945
 20
45.809303
  0
VERTEX
  8
3
  6
CONTINUOUS
 10
53.008968
 20
45.853771
  0
SEQEND
  8
3
  6
CONTINUOUS
  0
LINE
  8
3
  6
ESTILO_TQS_0001
 10
48.687296
 20
45.953772
 11
52.973138
 21
45.953772
  0
POLYLINE
  8
3
  6
CONTINUOUS
 66
     1
  0
VERTEX
  8
3
  6
CONTINUOUS
 10
49.111048
 20
47.510579
  0
VERTEX
  8
3
  6
CONTINUOUS
 10
52.621048
 20
47.510579
  0
SEQEND
  8
3
  6
CONTINUOUS
  0
POLYLINE
  8
3
  6
CONTINUOUS
 66
     1
  0
VERTEX
  8
3
  6
CONTINUOUS
 10
50.240986
 20
45.513772
  0
VERTEX
  8
3
  6
CONTINUOUS
 10
50.240986
 20
48.093772
  0
SEQEND
  8
3
  6
CONTINUOUS
  0
POLYLINE
  8
3
  6
CONTINUOUS
 66
     1
  0
VERTEX
  8
3
  6
CONTINUOUS
 10
51.533050
 20
45.513772
  0
VERTEX
  8
3
  6
CONTINUOUS
 10
51.533050
 20
48.093772
  0
SEQEND
  8
3
  6
CONTINUOUS
  0
TEXT
  8
8
  6
CONTINUOUS
 10
49.035004
 20
51.038789
 40
0.400000
  1
ELEVAÇÃO DO
  0
LINE
  8
4
  6
CONTINUOUS
 10
57.160007
 20
46.170372
 11
57.895899
 21
46.170372
  0
LINE
  8
4
  6
CONTINUOUS
 10
57.895899
 20
46.170372
 11
57.895899
 21
46.669458
  0
LINE
  8
4
  6
CONTINUOUS
 10
57.895899
 20
46.669458
 11
58.890862
 21
46.669458
  0
TEXT
  8
5
  6
CONTINUOUS
 10
57.882632
 20
46.795466
 40
0.180000
 50
0.557000
  1
2 N9 %%c 10
  0
LINE
  8
4
  6
CONTINUOUS
 10
49.051048
 20
49.267034
 11
52.681048
 21
49.267034
  0
LINE
  8
4
  6
CONTINUOUS
 10
49.051048
 20
48.253772
 11
49.051048
 21
49.417034
  0
LINE
  8
4
  6
CONTINUOUS
 10
52.681048
 20
48.253772
 11
52.681048
 21
49.417034
  0
LINE
  8
3
  6
CONTINUOUS
 10
49.051048
 20
49.267034
 11
49.298909
 21
49.299666
  0
LINE
  8
3
  6
CONTINUOUS
 10
49.051048
 20
49.267034
 11
49.298909
 21
49.234403
  0
LINE
  8
3
  6
CONTINUOUS
 10
52.681048
 20
49.267034
 11
52.433186
 21
49.234403
  0
LINE
  8
3
  6
CONTINUOUS
 10
52.681048
 20
49.267034
 11
52.433186
 21
49.299666
  0
TEXT
  8
5
  6
CONTINUOUS
 10
54.909974
 20
45.282845
 40
0.180000
 50
342.847174
  1
 9 
  0
TEXT
  8
5
  6
CONTINUOUS
 10
55.211586
 20
46.634181
 40
0.180000
 50
90.000000
  1
 132 
  0
TEXT
  8
5
  6
CONTINUOUS
 10
54.925020
 20
48.180372
 40
0.180000
 50
360.000000
  1
 9 
  0
TEXT
  8
5
  6
CONTINUOUS
 10
55.645313
 20
45.132376
 40
0.180000
 50
90.000000
  1
7x12 N15 %%c 6.3 C/15 C=150
  0
TEXT
  8
5
  6
CONTINUOUS
 10
54.196689
 20
48.180372
 40
0.180000
 50
0.000000
  1
 9 
  0
TEXT
  8
5
  6
CONTINUOUS
 10
54.669553
 20
46.476899
 40
0.180000
 50
90.000000
  1
 129 
  0
TEXT
  8
5
  6
CONTINUOUS
 10
54.181643
 20
45.281795
 40
0.180000
 50
342.847174
  1
 9 
  0
POLYLINE
  8
7
  6
CONTINUOUS
 66
     1
  0
VERTEX
  8
7
  6
CONTINUOUS
 10
49.111048
 20
44.176311
  0
VERTEX
  8
7
  6
CONTINUOUS
 10
52.621048
 20
44.176311
  0
SEQEND
  8
7
  6
CONTINUOUS
  0
TEXT
  8
3
  6
CONTINUOUS
 10
50.267882
 20
49.331708
 40
0.180000
  1
N15 + N16
  0
TEXT
  8
3
  6
CONTINUOUS
 10
50.134641
 20
45.263621
 40
0.180000
 50
90.000000
  1
12 N15 %%c 6.3 C/15
  0
TEXT
  8
3
  6
CONTINUOUS
 10
51.455770
 20
45.272616
 40
0.180000
 50
90.000000
  1
12 N16 %%c 6.3 C/15
  0
TEXT
  8
8
  6
CONTINUOUS
 10
49.035004
 20
50.303606
 40
0.400000
  1
GUARDA CORPO (7x)
  0
LINE
  8
3
  6
CONTINUOUS
 10
100.099165
 20
46.519755
 11
103.729165
 21
46.519755
  0
LINE
  8
3
  6
CONTINUOUS
 10
100.099165
 20
46.019755
 11
103.729165
 21
46.019755
  0
POLYLINE
  8
3
  6
CONTINUOUS
 66
     1
  0
VERTEX
  8
3
  6
CONTINUOUS
 10
99.771244
 20
45.719755
  0
VERTEX
  8
3
  6
CONTINUOUS
 10
99.756793
 20
45.688941
  0
VERTEX
  8
3
  6
CONTINUOUS
 10
99.745414
 20
45.658813
  0
VERTEX
  8
3
  6
CONTINUOUS
 10
99.733677
 20
45.616812
  0
VERTEX
  8
3
  6
CONTINUOUS
 10
99.723888
 20
45.546714
  0
VERTEX
  8
3
  6
CONTINUOUS
 10
99.726539
 20
45.469602
  0
VERTEX
  8
3
  6
CONTINUOUS
 10
99.740538
 20
45.402290
  0
VERTEX
  8
3
  6
CONTINUOUS
 10
99.751573
 20
45.369626
  0
VERTEX
  8
3
  6
CONTINUOUS
 10
99.771244
 20
45.325833
  0
SEQEND
  8
3
  6
CONTINUOUS
  0
POLYLINE
  8
3
  6
CONTINUOUS
 66
     1
  0
VERTEX
  8
3
  6
CONTINUOUS
 10
99.771244
 20
44.931910
  0
VERTEX
  8
3
  6
CONTINUOUS
 10
99.785697
 20
44.962725
  0
VERTEX
  8
3
  6
CONTINUOUS
 10
99.797076
 20
44.992852
  0
VERTEX
  8
3
  6
CONTINUOUS
 10
99.808813
 20
45.034853
  0
VERTEX
  8
3
  6
CONTINUOUS
 10
99.818600
 20
45.104951
  0
VERTEX
  8
3
  6
CONTINUOUS
 10
99.815949
 20
45.182063
  0
VERTEX
  8
3
  6
CONTINUOUS
 10
99.801950
 20
45.249376
  0
VERTEX
  8
3
  6
CONTINUOUS
 10
99.790918
 20
45.282040
  0
VERTEX
  8
3
  6
CONTINUOUS
 10
99.771244
 20
45.325832
  0
SEQEND
  8
3
  6
CONTINUOUS
  0
POLYLINE
  8
3
  6
CONTINUOUS
 66
     1
  0
VERTEX
  8
3
  6
CONTINUOUS
 10
99.771244
 20
44.931910
  0
VERTEX
  8
3
  6
CONTINUOUS
 10
99.756793
 20
44.901096
  0
VERTEX
  8
3
  6
CONTINUOUS
 10
99.745414
 20
44.870969
  0
VERTEX
  8
3
  6
CONTINUOUS
 10
99.733677
 20
44.828968
  0
VERTEX
  8
3
  6
CONTINUOUS
 10
99.723888
 20
44.758870
  0
VERTEX
  8
3
  6
CONTINUOUS
 10
99.726539
 20
44.681758
  0
VERTEX
  8
3
  6
CONTINUOUS
 10
99.740538
 20
44.614445
  0
VERTEX
  8
3
  6
CONTINUOUS
 10
99.751573
 20
44.581781
  0
VERTEX
  8
3
  6
CONTINUOUS
 10
99.771244
 20
44.537988
  0
SEQEND
  8
3
  6
CONTINUOUS
  0
POLYLINE
  8
3
  6
CONTINUOUS
 66
     1
  0
VERTEX
  8
3
  6
CONTINUOUS
 10
99.771244
 20
44.144066
  0
VERTEX
  8
3
  6
CONTINUOUS
 10
99.785697
 20
44.174880
  0
VERTEX
  8
3
  6
CONTINUOUS
 10
99.797076
 20
44.205008
  0
VERTEX
  8
3
  6
CONTINUOUS
 10
99.808813
 20
44.247009
  0
VERTEX
  8
3
  6
CONTINUOUS
 10
99.818600
 20
44.317107
  0
VERTEX
  8
3
  6
CONTINUOUS
 10
99.815949
 20
44.394219
  0
VERTEX
  8
3
  6
CONTINUOUS
 10
99.801950
 20
44.461531
  0
VERTEX
  8
3
  6
CONTINUOUS
 10
99.790918
 20
44.494195
  0
VERTEX
  8
3
  6
CONTINUOUS
 10
99.771244
 20
44.537988
  0
SEQEND
  8
3
  6
CONTINUOUS
  0
POLYLINE
  8
3
  6
CONTINUOUS
 66
     1
  0
VERTEX
  8
3
  6
CONTINUOUS
 10
104.057086
 20
45.719755
  0
VERTEX
  8
3
  6
CONTINUOUS
 10
104.042634
 20
45.688941
  0
VERTEX
  8
3
  6
CONTINUOUS
 10
104.031256
 20
45.658813
  0
VERTEX
  8
3
  6
CONTINUOUS
 10
104.019518
 20
45.616812
  0
VERTEX
  8
3
  6
CONTINUOUS
 10
104.009730
 20
45.546714
  0
VERTEX
  8
3
  6
CONTINUOUS
 10
104.012380
 20
45.469602
  0
VERTEX
  8
3
  6
CONTINUOUS
 10
104.026379
 20
45.402290
  0
VERTEX
  8
3
  6
CONTINUOUS
 10
104.037414
 20
45.369626
  0
VERTEX
  8
3
  6
CONTINUOUS
 10
104.057086
 20
45.325833
  0
SEQEND
  8
3
  6
CONTINUOUS
  0
POLYLINE
  8
3
  6
CONTINUOUS
 66
     1
  0
VERTEX
  8
3
  6
CONTINUOUS
 10
104.057086
 20
44.931910
  0
VERTEX
  8
3
  6
CONTINUOUS
 10
104.071538
 20
44.962725
  0
VERTEX
  8
3
  6
CONTINUOUS
 10
104.082917
 20
44.992852
  0
VERTEX
  8
3
  6
CONTINUOUS
 10
104.094654
 20
45.034853
  0
VERTEX
  8
3
  6
CONTINUOUS
 10
104.104441
 20
45.104951
  0
VERTEX
  8
3
  6
CONTINUOUS
 10
104.101791
 20
45.182063
  0
VERTEX
  8
3
  6
CONTINUOUS
 10
104.087792
 20
45.249376
  0
VERTEX
  8
3
  6
CONTINUOUS
 10
104.076759
 20
45.282040
  0
VERTEX
  8
3
  6
CONTINUOUS
 10
104.057086
 20
45.325832
  0
SEQEND
  8
3
  6
CONTINUOUS
  0
POLYLINE
  8
3
  6
CONTINUOUS
 66
     1
  0
VERTEX
  8
3
  6
CONTINUOUS
 10
104.057086
 20
44.931910
  0
VERTEX
  8
3
  6
CONTINUOUS
 10
104.042634
 20
44.901096
  0
VERTEX
  8
3
  6
CONTINUOUS
 10
104.031256
 20
44.870969
  0
VERTEX
  8
3
  6
CONTINUOUS
 10
104.019518
 20
44.828968
  0
VERTEX
  8
3
  6
CONTINUOUS
 10
104.009730
 20
44.758870
  0
VERTEX
  8
3
  6
CONTINUOUS
 10
104.012380
 20
44.681758
  0
VERTEX
  8
3
  6
CONTINUOUS
 10
104.026379
 20
44.614445
  0
VERTEX
  8
3
  6
CONTINUOUS
 10
104.037414
 20
44.581781
  0
VERTEX
  8
3
  6
CONTINUOUS
 10
104.057086
 20
44.537988
  0
SEQEND
  8
3
  6
CONTINUOUS
  0
POLYLINE
  8
3
  6
CONTINUOUS
 66
     1
  0
VERTEX
  8
3
  6
CONTINUOUS
 10
104.057086
 20
44.144066
  0
VERTEX
  8
3
  6
CONTINUOUS
 10
104.071538
 20
44.174880
  0
VERTEX
  8
3
  6
CONTINUOUS
 10
104.082917
 20
44.205008
  0
VERTEX
  8
3
  6
CONTINUOUS
 10
104.094654
 20
44.247009
  0
VERTEX
  8
3
  6
CONTINUOUS
 10
104.104441
 20
44.317107
  0
VERTEX
  8
3
  6
CONTINUOUS
 10
104.101791
 20
44.394219
  0
VERTEX
  8
3
  6
CONTINUOUS
 10
104.087792
 20
44.461531
  0
VERTEX
  8
3
  6
CONTINUOUS
 10
104.076759
 20
44.494195
  0
VERTEX
  8
3
  6
CONTINUOUS
 10
104.057086
 20
44.537988
  0
SEQEND
  8
3
  6
CONTINUOUS
  0
POLYLINE
  8
3
  6
CONTINUOUS
 66
     1
  0
VERTEX
  8
3
  6
CONTINUOUS
 10
100.159165
 20
47.396355
  0
VERTEX
  8
3
  6
CONTINUOUS
 10
103.669165
 20
47.396355
  0
SEQEND
  8
3
  6
CONTINUOUS
  0
POLYLINE
  8
3
  6
CONTINUOUS
 66
     1
  0
VERTEX
  8
3
  6
CONTINUOUS
 10
100.159165
 20
46.456355
  0
VERTEX
  8
3
  6
CONTINUOUS
 10
103.669165
 20
46.456355
  0
SEQEND
  8
3
  6
CONTINUOUS
  0
POLYLINE
  8
3
  6
CONTINUOUS
 66
     1
  0
VERTEX
  8
3
  6
CONTINUOUS
 10
100.159165
 20
45.956355
  0
VERTEX
  8
3
  6
CONTINUOUS
 10
103.669165
 20
45.956355
  0
SEQEND
  8
3
  6
CONTINUOUS
  0
POLYLINE
  8
3
  6
CONTINUOUS
 66
     1
  0
VERTEX
  8
3
  6
CONTINUOUS
 10
100.159165
 20
46.926355
  0
VERTEX
  8
3
  6
CONTINUOUS
 10
103.669165
 20
46.926355
  0
SEQEND
  8
3
  6
CONTINUOUS
  0
POLYLINE
  8
7
  6
CONTINUOUS
 66
     1
  0
VERTEX
  8
7
  6
CONTINUOUS
 10
100.159165
 20
42.971263
  0
VERTEX
  8
7
  6
CONTINUOUS
 10
103.669165
 20
42.971263
  0
SEQEND
  8
7
  6
CONTINUOUS
  0
TEXT
  8
5
  6
CONTINUOUS
 10
100.633467
 20
43.117620
 40
0.180000
  1
7x8 N18 %%c 6.3 C=176
  0
LINE
  8
4
  6
CONTINUOUS
 10
100.099165
 20
48.367460
 11
103.729165
 21
48.367460
  0
LINE
  8
4
  6
CONTINUOUS
 10
100.099165
 20
47.559755
 11
100.099165
 21
48.517460
  0
LINE
  8
4
  6
CONTINUOUS
 10
103.729165
 20
47.559755
 11
103.729165
 21
48.517460
  0
LINE
  8
3
  6
CONTINUOUS
 10
100.099165
 20
48.367460
 11
100.347026
 21
48.400091
  0
LINE
  8
3
  6
CONTINUOUS
 10
100.099165
 20
48.367460
 11
100.347026
 21
48.334828
  0
LINE
  8
3
  6
CONTINUOUS
 10
103.729165
 20
48.367460
 11
103.481304
 21
48.334828
  0
LINE
  8
3
  6
CONTINUOUS
 10
103.729165
 20
48.367460
 11
103.481304
 21
48.400091
  0
TEXT
  8
8
  6
CONTINUOUS
 10
100.240486
 20
51.038789
 40
0.400000
  1
ELEVAÇÃO DA
  0
TEXT
  8
8
  6
CONTINUOUS
 10
100.240486
 20
50.303606
 40
0.400000
  1
DEFENSA (7x)
  0
TEXT
  8
3
  6
CONTINUOUS
 10
101.141734
 20
48.488679
 40
0.180000
  1
12 N6 %%c 8 C/15
  0
TEXT
  8
3
  6
CONTINUOUS
 10
90.689432
 20
46.568029
 40
0.180000
 50
-270.000000
  1
4 N18 %%c 6.3
  0
TEXT
  8
3
  6
CONTINUOUS
 10
92.896836
 20
46.182269
 40
0.180000
 50
-270.000000
  1
4 N18 %%c 6.3
  0
TEXT
  8
3
  6
CONTINUOUS
 10
101.400467
 20
47.564632
 40
0.180000
  1
2 N18
  0
TEXT
  8
3
  6
CONTINUOUS
 10
101.400467
 20
47.018045
 40
0.180000
  1
2 N18
  0
TEXT
  8
3
  6
CONTINUOUS
 10
101.400467
 20
46.548045
 40
0.180000
  1
2 N18
  0
TEXT
  8
3
  6
CONTINUOUS
 10
101.400467
 20
46.048045
 40
0.180000
  1
2 N18
  0
LINE
  8
3
  6
ESTILO_TQS_0001
 10
100.159165
 20
45.956355
 11
100.159165
 21
42.971263
  0
TEXT
  8
3
  6
CONTINUOUS
 10
75.535043
 20
42.635758
 40
0.180000
 50
0.541000
  1
100 N7 %%c 25 C/10
  0
TEXT
  8
3
  6
CONTINUOUS
 10
28.112604
 20
34.778023
 40
0.180000
 50
-254.459000
  1
100 N7 %%c 25 C/10
  0
LINE
  8
7
  6
ESTILO_TQS_0001
 10
31.622097
 20
53.049617
 11
38.450643
 21
28.098923
  0
TEXT
  8
3
  6
CONTINUOUS
 10
36.640195
 20
36.142435
 40
0.180000
 50
-254.459000
  1
(SUP.)
  0
TEXT
  8
3
  6
CONTINUOUS
 10
27.182394
 20
43.473258
 40
0.180000
  1
(SUP.)
  0
TEXT
  8
3
  6
CONTINUOUS
 10
26.753889
 20
43.999041
 40
0.180000
  1
91 N2 %%c 10 C/12
  0
TEXT
  8
3
  6
CONTINUOUS
 10
11.235671
 20
44.998230
 40
0.180000
  1
(SUP.)
  0
TEXT
  8
3
  6
CONTINUOUS
 10
44.408389
 20
41.380191
 40
0.180000
  1
(SUP.)
  0
TEXT
  8
3
  6
CONTINUOUS
 10
28.806997
 20
34.307628
 40
0.180000
 50
-254.459000
  1
(EMENDAS COM SOLDA)
  0
TEXT
  8
3
  6
CONTINUOUS
 10
20.069647
 20
34.115355
 40
0.180000
 50
-254.459000
  1
(EMENDAS COM SOLDA)
  0
TEXT
  8
3
  6
CONTINUOUS
 10
45.496361
 20
33.794964
 40
0.180000
 50
-254.459000
  1
(EMENDAS COM SOLDA)
  0
TEXT
  8
3
  6
CONTINUOUS
 10
17.095063
 20
34.497863
 40
0.180000
 50
-254.459000
  1
(EMENDAS COM SOLDA)
  0
TEXT
  8
3
  6
CONTINUOUS
 10
15.274977
 20
35.372974
 40
0.180000
 50
-254.459000
  1
(SUP.)
  0
TEXT
  8
3
  6
CONTINUOUS
 10
15.190200
 20
34.045482
 40
0.180000
 50
-255.000000
  1
12 N10 %%c 6.3 C/20 C=CORR
  0
TEXT
  8
3
  6
CONTINUOUS
 10
13.554505
 20
40.018508
 40
0.180000
 50
-255.000000
  1
(EMENDAS ALTERNADAS)
  0
LINE
  8
4
  6
CONTINUOUS
 10
38.977029
 20
51.579493
 11
38.977029
 21
29.568923
  0
POLYLINE
  8
3
  6
CONTINUOUS
 66
     1
  0
VERTEX
  8
3
  6
CONTINUOUS
 10
38.977029
 20
51.436811
  0
VERTEX
  8
3
  6
CONTINUOUS
 10
38.977029
 20
51.579493
  0
VERTEX
  8
3
  6
CONTINUOUS
 10
39.009661
 20
51.331632
  0
VERTEX
  8
3
  6
CONTINUOUS
 10
38.977029
 20
51.579493
  0
VERTEX
  8
3
  6
CONTINUOUS
 10
38.944398
 20
51.331632
  0
SEQEND
  8
3
  6
CONTINUOUS
  0
POLYLINE
  8
3
  6
CONTINUOUS
 66
     1
  0
VERTEX
  8
3
  6
CONTINUOUS
 10
38.977029
 20
29.669898
  0
VERTEX
  8
3
  6
CONTINUOUS
 10
38.977029
 20
29.568923
  0
VERTEX
  8
3
  6
CONTINUOUS
 10
38.944398
 20
29.816784
  0
VERTEX
  8
3
  6
CONTINUOUS
 10
38.977029
 20
29.568923
  0
VERTEX
  8
3
  6
CONTINUOUS
 10
39.009661
 20
29.816784
  0
SEQEND
  8
3
  6
CONTINUOUS
  0
LINE
  8
4
  6
CONTINUOUS
 10
10.315978
 20
53.109579
 11
10.315978
 21
28.038923
  0
LINE
  8
4
  6
CONTINUOUS
 10
14.276592
 20
28.038923
 11
9.928252
 21
28.038923
  0
POLYLINE
  8
3
  6
CONTINUOUS
 66
     1
  0
VERTEX
  8
3
  6
CONTINUOUS
 10
10.315978
 20
53.001731
  0
VERTEX
  8
3
  6
CONTINUOUS
 10
10.315978
 20
53.109579
  0
VERTEX
  8
3
  6
CONTINUOUS
 10
10.348610
 20
52.861718
  0
VERTEX
  8
3
  6
CONTINUOUS
 10
10.315978
 20
53.109579
  0
VERTEX
  8
3
  6
CONTINUOUS
 10
10.283347
 20
52.861718
  0
SEQEND
  8
3
  6
CONTINUOUS
  0
POLYLINE
  8
3
  6
CONTINUOUS
 66
     1
  0
VERTEX
  8
3
  6
CONTINUOUS
 10
10.315978
 20
28.126755
  0
VERTEX
  8
3
  6
CONTINUOUS
 10
10.315978
 20
28.038923
  0
VERTEX
  8
3
  6
CONTINUOUS
 10
10.283347
 20
28.286784
  0
VERTEX
  8
3
  6
CONTINUOUS
 10
10.315978
 20
28.038923
  0
VERTEX
  8
3
  6
CONTINUOUS
 10
10.348610
 20
28.286784
  0
SEQEND
  8
3
  6
CONTINUOUS
  0
LINE
  8
4
  6
CONTINUOUS
 10
13.975847
 20
29.137810
 11
46.576898
 21
38.060299
  0
LINE
  8
4
  6
CONTINUOUS
 10
22.646286
 20
32.308989
 11
23.064795
 21
30.779808
  0
LINE
  8
4
  6
CONTINUOUS
 10
17.244919
 20
30.830734
 11
17.663428
 21
29.301552
  0
LINE
  8
4
  6
CONTINUOUS
 10
42.129787
 20
37.641267
 11
42.548296
 21
36.112086
  0
POLYLINE
  8
3
  6
CONTINUOUS
 66
     1
  0
VERTEX
  8
3
  6
CONTINUOUS
 10
14.068799
 20
29.163250
  0
VERTEX
  8
3
  6
CONTINUOUS
 10
13.975847
 20
29.137810
  0
VERTEX
  8
3
  6
CONTINUOUS
 10
14.206302
 20
29.234714
  0
VERTEX
  8
3
  6
CONTINUOUS
 10
13.975847
 20
29.137810
  0
VERTEX
  8
3
  6
CONTINUOUS
 10
14.223530
 20
29.171766
  0
SEQEND
  8
3
  6
CONTINUOUS
  0
POLYLINE
  8
3
  6
CONTINUOUS
 66
     1
  0
VERTEX
  8
3
  6
CONTINUOUS
 10
17.354769
 20
30.062578
  0
VERTEX
  8
3
  6
CONTINUOUS
 10
17.448155
 20
30.088136
  0
VERTEX
  8
3
  6
CONTINUOUS
 10
17.217699
 20
29.991232
  0
VERTEX
  8
3
  6
CONTINUOUS
 10
17.448155
 20
30.088136
  0
VERTEX
  8
3
  6
CONTINUOUS
 10
17.200471
 20
30.054180
  0
SEQEND
  8
3
  6
CONTINUOUS
  0
POLYLINE
  8
3
  6
CONTINUOUS
 66
     1
  0
VERTEX
  8
3
  6
CONTINUOUS
 10
17.541540
 20
30.113693
  0
VERTEX
  8
3
  6
CONTINUOUS
 10
17.448155
 20
30.088136
  0
VERTEX
  8
3
  6
CONTINUOUS
 10
17.695838
 20
30.122090
  0
VERTEX
  8
3
  6
CONTINUOUS
 10
17.448155
 20
30.088136
  0
VERTEX
  8
3
  6
CONTINUOUS
 10
17.678611
 20
30.185038
  0
SEQEND
  8
3
  6
CONTINUOUS
  0
POLYLINE
  8
3
  6
CONTINUOUS
 66
     1
  0
VERTEX
  8
3
  6
CONTINUOUS
 10
18.705114
 20
30.432142
  0
VERTEX
  8
3
  6
CONTINUOUS
 10
18.798500
 20
30.457701
  0
VERTEX
  8
3
  6
CONTINUOUS
 10
18.568044
 20
30.360796
  0
VERTEX
  8
3
  6
CONTINUOUS
 10
18.798500
 20
30.457701
  0
VERTEX
  8
3
  6
CONTINUOUS
 10
18.550816
 20
30.423745
  0
SEQEND
  8
3
  6
CONTINUOUS
  0
POLYLINE
  8
3
  6
CONTINUOUS
 66
     1
  0
VERTEX
  8
3
  6
CONTINUOUS
 10
18.891885
 20
30.483258
  0
VERTEX
  8
3
  6
CONTINUOUS
 10
18.798500
 20
30.457701
  0
VERTEX
  8
3
  6
CONTINUOUS
 10
19.046183
 20
30.491654
  0
VERTEX
  8
3
  6
CONTINUOUS
 10
18.798500
 20
30.457701
  0
VERTEX
  8
3
  6
CONTINUOUS
 10
19.028956
 20
30.554603
  0
SEQEND
  8
3
  6
CONTINUOUS
  0
POLYLINE
  8
3
  6
CONTINUOUS
 66
     1
  0
VERTEX
  8
3
  6
CONTINUOUS
 10
22.756136
 20
31.540833
  0
VERTEX
  8
3
  6
CONTINUOUS
 10
22.849521
 20
31.566391
  0
VERTEX
  8
3
  6
CONTINUOUS
 10
22.619066
 20
31.469487
  0
VERTEX
  8
3
  6
CONTINUOUS
 10
22.849521
 20
31.566391
  0
VERTEX
  8
3
  6
CONTINUOUS
 10
22.601838
 20
31.532435
  0
SEQEND
  8
3
  6
CONTINUOUS
  0
POLYLINE
  8
3
  6
CONTINUOUS
 66
     1
  0
VERTEX
  8
3
  6
CONTINUOUS
 10
22.942907
 20
31.591949
  0
VERTEX
  8
3
  6
CONTINUOUS
 10
22.849521
 20
31.566391
  0
VERTEX
  8
3
  6
CONTINUOUS
 10
23.097205
 20
31.600345
  0
VERTEX
  8
3
  6
CONTINUOUS
 10
22.849521
 20
31.566391
  0
VERTEX
  8
3
  6
CONTINUOUS
 10
23.079977
 20
31.663293
  0
SEQEND
  8
3
  6
CONTINUOUS
  0
POLYLINE
  8
3
  6
CONTINUOUS
 66
     1
  0
VERTEX
  8
3
  6
CONTINUOUS
 10
42.239637
 20
36.873111
  0
VERTEX
  8
3
  6
CONTINUOUS
 10
42.333022
 20
36.898669
  0
VERTEX
  8
3
  6
CONTINUOUS
 10
42.102567
 20
36.801765
  0
VERTEX
  8
3
  6
CONTINUOUS
 10
42.333022
 20
36.898669
  0
VERTEX
  8
3
  6
CONTINUOUS
 10
42.085339
 20
36.864713
  0
SEQEND
  8
3
  6
CONTINUOUS
  0
POLYLINE
  8
3
  6
CONTINUOUS
 66
     1
  0
VERTEX
  8
3
  6
CONTINUOUS
 10
42.426408
 20
36.924227
  0
VERTEX
  8
3
  6
CONTINUOUS
 10
42.333022
 20
36.898669
  0
VERTEX
  8
3
  6
CONTINUOUS
 10
42.580706
 20
36.932623
  0
VERTEX
  8
3
  6
CONTINUOUS
 10
42.333022
 20
36.898669
  0
VERTEX
  8
3
  6
CONTINUOUS
 10
42.563478
 20
36.995571
  0
SEQEND
  8
3
  6
CONTINUOUS
  0
POLYLINE
  8
3
  6
CONTINUOUS
 66
     1
  0
VERTEX
  8
3
  6
CONTINUOUS
 10
46.483545
 20
38.034616
  0
VERTEX
  8
3
  6
CONTINUOUS
 10
46.576931
 20
38.060175
  0
VERTEX
  8
3
  6
CONTINUOUS
 10
46.346475
 20
37.963270
  0
VERTEX
  8
3
  6
CONTINUOUS
 10
46.576931
 20
38.060175
  0
VERTEX
  8
3
  6
CONTINUOUS
 10
46.329247
 20
38.026218
  0
SEQEND
  8
3
  6
CONTINUOUS
  0
TEXT
  8
3
  6
CONTINUOUS
 10
15.560413
 20
29.686211
 40
0.180000
 50
-344.459000
  1
(190)
  0
TEXT
  8
3
  6
CONTINUOUS
 10
17.986719
 20
30.350953
 40
0.180000
 50
-344.459000
  1
(70)
  0
TEXT
  8
3
  6
CONTINUOUS
 10
20.723239
 20
31.071089
 40
0.180000
 50
-344.459000
  1
(210)
  0
TEXT
  8
3
  6
CONTINUOUS
 10
31.364514
 20
34.020243
 40
0.180000
 50
-344.459000
  1
(1010)
  0
TEXT
  8
3
  6
CONTINUOUS
 10
44.269792
 20
37.539923
 40
0.180000
 50
-344.459000
  1
(210)
  0
LINE
  8
4
  6
CONTINUOUS
 10
15.433996
 20
42.751161
 11
42.440792
 21
50.142574
  0
POLYLINE
  8
3
  6
CONTINUOUS
 66
     1
  0
VERTEX
  8
3
  6
CONTINUOUS
 10
15.579843
 20
42.791078
  0
VERTEX
  8
3
  6
CONTINUOUS
 10
15.433996
 20
42.751161
  0
VERTEX
  8
3
  6
CONTINUOUS
 10
15.664452
 20
42.848065
  0
VERTEX
  8
3
  6
CONTINUOUS
 10
15.433996
 20
42.751161
  0
VERTEX
  8
3
  6
CONTINUOUS
 10
15.681680
 20
42.785117
  0
SEQEND
  8
3
  6
CONTINUOUS
  0
POLYLINE
  8
3
  6
CONTINUOUS
 66
     1
  0
VERTEX
  8
3
  6
CONTINUOUS
 10
42.334841
 20
50.113576
  0
VERTEX
  8
3
  6
CONTINUOUS
 10
42.440792
 20
50.142574
  0
VERTEX
  8
3
  6
CONTINUOUS
 10
42.210337
 20
50.045670
  0
VERTEX
  8
3
  6
CONTINUOUS
 10
42.440792
 20
50.142574
  0
VERTEX
  8
3
  6
CONTINUOUS
 10
42.193109
 20
50.108618
  0
SEQEND
  8
3
  6
CONTINUOUS
  0
CIRCLE
  8
5
  6
CONTINUOUS
 10
33.116133
 20
47.590529
 40
0.100000
  0
CIRCLE
  8
5
  6
CONTINUOUS
 10
38.977029
 20
43.823387
 40
0.100000
  0
CIRCLE
  8
5
  6
CONTINUOUS
 10
38.977029
 20
38.413388
 40
0.100000
  0
CIRCLE
  8
5
  6
CONTINUOUS
 10
44.139259
 20
37.393168
 40
0.100000
  0
CIRCLE
  8
5
  6
CONTINUOUS
 10
28.715677
 20
33.171881
 40
0.100000
  0
CIRCLE
  8
5
  6
CONTINUOUS
 10
20.572709
 20
30.943279
 40
0.100000
  0
CIRCLE
  8
5
  6
CONTINUOUS
 10
17.913521
 20
30.215484
 40
0.100000
  0
CIRCLE
  8
5
  6
CONTINUOUS
 10
15.310016
 20
29.502948
 40
0.100000
  0
CIRCLE
  8
5
  6
CONTINUOUS
 10
10.315978
 20
45.300874
 40
0.100000
  0
TEXT
  8
3
  6
CONTINUOUS
 10
49.660518
 20
47.652039
 40
0.180000
  1
2x6 N17 %%c 6.3 C/15
  0
TEXT
  8
5
  6
CONTINUOUS
 10
49.276342
 20
44.345654
 40
0.180000
  1
7x12 N17 %%c 6.3 C/15 C=176
  0
TEXT
  8
5
  6
CONTINUOUS
 10
54.201988
 20
45.184065
 40
0.180000
 50
90.000000
  1
7x12 N16 %%c 6.3 C/15 C=147
  0
TEXT
  8
3
  6
CONTINUOUS
 10
56.457940
 20
45.953278
 40
0.180000
 50
-270.000000
  1
2x6 N17 %%c 6.3 C/15
  0
CIRCLE
  8
7
  6
CONTINUOUS
 10
57.293207
 20
47.770372
 40
0.020000
  0
CIRCLE
  8
7
  6
CONTINUOUS
 10
57.160007
 20
47.770372
 40
0.020000
  0
CIRCLE
  8
7
  6
CONTINUOUS
 10
57.293207
 20
47.470372
 40
0.020000
  0
CIRCLE
  8
7
  6
CONTINUOUS
 10
57.160007
 20
47.470372
 40
0.020000
  0
CIRCLE
  8
7
  6
CONTINUOUS
 10
57.293207
 20
47.170372
 40
0.020000
  0
CIRCLE
  8
7
  6
CONTINUOUS
 10
57.160007
 20
47.170372
 40
0.020000
  0
CIRCLE
  8
7
  6
CONTINUOUS
 10
57.293207
 20
46.870372
 40
0.020000
  0
CIRCLE
  8
7
  6
CONTINUOUS
 10
57.160007
 20
46.870372
 40
0.020000
  0
CIRCLE
  8
7
  6
CONTINUOUS
 10
57.293207
 20
46.570372
 40
0.020000
  0
CIRCLE
  8
7
  6
CONTINUOUS
 10
57.160007
 20
46.570372
 40
0.020000
  0
TEXT
  8
3
  6
CONTINUOUS
 10
57.993165
 20
46.362745
 40
0.180000
  1
C=CORR.
  0
TEXT
  8
3
  6
CONTINUOUS
 10
58.084892
 20
47.449359
 40
0.180000
  1
12 N10 %%c 6.3 C/20 C=CORR.
  0
LINE
  8
3
  6
ESTILO_TQS_0001
 10
62.260477
 20
45.953772
 11
62.260477
 21
52.083015
  0
LINE
  8
4
  6
CONTINUOUS
 10
60.911536
 20
48.549952
 11
62.410477
 21
48.549952
  0
LINE
  8
4
  6
CONTINUOUS
 10
61.061536
 20
49.295551
 11
61.061536
 21
48.399952
  0
LINE
  8
4
  6
CONTINUOUS
 10
62.260477
 20
48.629291
 11
62.260477
 21
48.699952
  0
CIRCLE
  8
3
  6
CONTINUOUS
 10
61.061536
 20
48.549952
 40
0.040000
  0
CIRCLE
  8
3
  6
CONTINUOUS
 10
61.061536
 20
48.549952
 40
0.020000
  0
CIRCLE
  8
3
  6
CONTINUOUS
 10
62.260477
 20
48.549952
 40
0.040000
  0
CIRCLE
  8
3
  6
CONTINUOUS
 10
62.260477
 20
48.549952
 40
0.020000
  0
TEXT
  8
3
  6
CONTINUOUS
 10
61.484296
 20
48.603952
 40
0.180000
  1
60
  0
TEXT
  8
5
  6
CONTINUOUS
 10
74.889422
 20
49.724638
 40
0.180000
 50
0.557000
  1
91 N2 %%c 10 C/12 C=COR
  0
TEXT
  8
5
  6
CONTINUOUS
 10
74.036262
 20
49.151439
 40
0.180000
 50
0.557000
  1
1550-CORRIDO (EMENDAS ALTERNADAS)
  0
TEXT
  8
5
  6
CONTINUOUS
 10
93.841864
 20
46.469022
 40
0.180000
  1
2 N9 %%c 10
  0
TEXT
  8
5
  6
CONTINUOUS
 10
93.841864
 20
43.374240
 40
0.180000
  1
2 N9 %%c 10
  0
TEXT
  8
5
  6
CONTINUOUS
 10
75.175725
 20
40.249380
 40
0.180000
 50
0.557000
  1
1490-CORRIDO (EMENDAS ALTERNADAS)
  0
TEXT
  8
5
  6
CONTINUOUS
 10
97.692395
 20
44.351671
 40
0.180000
 50
90.000000
  1
7X12 N6 %%c 8 C/15 C=422
  0
TEXT
  8
5
  6
CONTINUOUS
 10
96.307610
 20
44.740039
 40
0.180000
 50
90.000000
  1
 89 
  0
TEXT
  8
5
  6
CONTINUOUS
 10
97.340810
 20
45.351604
 40
0.180000
 50
90.000000
  1
 158 
  0
TEXT
  8
3
  6
CONTINUOUS
 10
72.550044
 20
36.662333
 40
0.180000
  1
2X88 N12 %%c 8 C/20 (DUPLOS)
  0
TEXT
  8
5
  6
CONTINUOUS
 10
72.800997
 20
29.546608
 40
0.180000
 50
0.557000
  1
1746-CORRIDO (EMENDAS ALTERNADAS)
  0
TEXT
  8
5
  6
CONTINUOUS
 10
72.864546
 20
26.547098
 40
0.180000
 50
0.557000
  1
1746-CORRIDO (EMENDAS ALTERNADAS)
  0
TEXT
  8
5
  6
CONTINUOUS
 10
58.305843
 20
19.193601
 40
0.180000
  1
 47 
  0
TEXT
  8
5
  6
CONTINUOUS
 10
58.135462
 20
18.053601
 40
0.180000
 50
90.000000
  1
 74 
  0
TEXT
  8
5
  6
CONTINUOUS
 10
56.991836
 20
16.982052
 40
0.180000
  1
 176 N12 %%c 8 C/20 C=260
  0
TEXT
  8
5
  6
CONTINUOUS
 10
90.009902
 20
18.279985
 40
0.180000
  1
 47 
  0
TEXT
  8
5
  6
CONTINUOUS
 10
89.839521
 20
17.139985
 40
0.180000
 50
90.000000
  1
 74 
  0
TEXT
  8
5
  6
CONTINUOUS
 10
88.695894
 20
16.068436
 40
0.180000
  1
 176 N12 %%c 8 C/20 C=260
  0
TEXT
  8
3
  6
CONTINUOUS
 10
23.092219
 20
17.490619
 40
0.180000
 50
20.740000
  1
2x11 N13 %%c 6.3 C/15
  0
TEXT
  8
5
  6
CONTINUOUS
 10
22.735466
 20
11.790246
 40
0.180000
 50
20.740000
  1
2x11 N13 %%c 6.3 C/15 C=189
  0
TEXT
  8
5
  6
CONTINUOUS
 10
31.100071
 20
16.294264
 40
0.180000
 50
90.000000
  1
2x11 N13 %%c 6.3 C/15
  0
POLYLINE
  8
4
  6
CONTINUOUS
 66
     1
  0
VERTEX
  8
4
  6
CONTINUOUS
 10
25.782321
 20
19.060250
  0
VERTEX
  8
4
  6
CONTINUOUS
 10
25.782321
 20
15.696251
  0
SEQEND
  8
4
  6
CONTINUOUS
  0
POLYLINE
  8
3
  6
CONTINUOUS
 66
     1
  0
VERTEX
  8
3
  6
CONTINUOUS
 10
25.782321
 20
18.986480
  0
VERTEX
  8
3
  6
CONTINUOUS
 10
25.782321
 20
19.060250
  0
VERTEX
  8
3
  6
CONTINUOUS
 10
25.814953
 20
18.812389
  0
VERTEX
  8
3
  6
CONTINUOUS
 10
25.782321
 20
19.060250
  0
VERTEX
  8
3
  6
CONTINUOUS
 10
25.749690
 20
18.812389
  0
SEQEND
  8
3
  6
CONTINUOUS
  0
POLYLINE
  8
3
  6
CONTINUOUS
 66
     1
  0
VERTEX
  8
3
  6
CONTINUOUS
 10
25.782321
 20
15.750829
  0
VERTEX
  8
3
  6
CONTINUOUS
 10
25.782321
 20
15.696251
  0
VERTEX
  8
3
  6
CONTINUOUS
 10
25.749690
 20
15.944112
  0
VERTEX
  8
3
  6
CONTINUOUS
 10
25.782321
 20
15.696251
  0
VERTEX
  8
3
  6
CONTINUOUS
 10
25.814953
 20
15.944112
  0
SEQEND
  8
3
  6
CONTINUOUS
  0
CIRCLE
  8
5
  6
CONTINUOUS
 10
25.782321
 20
18.376867
 40
0.100000
  0
TEXT
  8
5
  6
CONTINUOUS
 10
71.570191
 20
21.211771
 40
0.180000
 50
357.854000
  1
71 N9 %%c 10 C/20 C=COR
  0
TEXT
  8
3
  6
CONTINUOUS
 10
76.215229
 20
21.033861
 40
0.180000
 50
357.854000
  1
(COMP.= 1293 CORR.)
  0
TEXT
  8
3
  6
CONTINUOUS
 10
76.224328
 20
20.560698
 40
0.180000
 50
357.854000
  1
(COMP.= 1293 CORR.)
  0
TEXT
  8
3
  6
CONTINUOUS
 10
79.979716
 20
20.897325
 40
0.180000
 50
357.854000
  1
(EMENDAS ALTERNADAS)
  0
TEXT
  8
3
  6
CONTINUOUS
 10
79.970936
 20
20.440800
 40
0.180000
 50
357.854000
  1
(EMENDAS ALTERNADAS)
  0
CIRCLE
  8
7
  6
CONTINUOUS
 10
74.558431
 20
18.744671
 40
0.016000
  0
LINE
  8
4
  6
CONTINUOUS
 10
74.576785
 20
19.234489
 11
74.558431
 21
18.744671
  0
LINE
  8
4
  6
CONTINUOUS
 10
74.816616
 20
19.225503
 11
74.798263
 21
18.735684
  0
LINE
  8
4
  6
CONTINUOUS
 10
75.056448
 20
19.216516
 11
75.038094
 21
18.726698
  0
LINE
  8
4
  6
CONTINUOUS
 10
75.296280
 20
19.207529
 11
75.277926
 21
18.717711
  0
CIRCLE
  8
7
  6
CONTINUOUS
 10
74.798263
 20
18.735684
 40
0.016000
  0
CIRCLE
  8
7
  6
CONTINUOUS
 10
75.038094
 20
18.726698
 40
0.016000
  0
CIRCLE
  8
7
  6
CONTINUOUS
 10
75.277926
 20
18.717711
 40
0.016000
  0
LINE
  8
4
  6
CONTINUOUS
 10
73.977205
 20
19.256955
 11
75.895859
 21
19.185063
  0
POLYLINE
  8
3
  6
CONTINUOUS
 66
     1
  0
VERTEX
  8
3
  6
CONTINUOUS
 10
74.019278
 20
19.255379
  0
VERTEX
  8
3
  6
CONTINUOUS
 10
73.977205
 20
19.256955
  0
VERTEX
  8
3
  6
CONTINUOUS
 10
74.226115
 20
19.280283
  0
VERTEX
  8
3
  6
CONTINUOUS
 10
73.977205
 20
19.256955
  0
VERTEX
  8
3
  6
CONTINUOUS
 10
74.223671
 20
19.215066
  0
SEQEND
  8
3
  6
CONTINUOUS
  0
POLYLINE
  8
3
  6
CONTINUOUS
 66
     1
  0
VERTEX
  8
3
  6
CONTINUOUS
 10
75.868799
 20
19.186077
  0
VERTEX
  8
3
  6
CONTINUOUS
 10
75.895859
 20
19.185063
  0
VERTEX
  8
3
  6
CONTINUOUS
 10
75.646950
 20
19.161735
  0
VERTEX
  8
3
  6
CONTINUOUS
 10
75.895859
 20
19.185063
  0
VERTEX
  8
3
  6
CONTINUOUS
 10
75.649393
 20
19.226953
  0
SEQEND
  8
3
  6
CONTINUOUS
  0
TEXT
  8
3
  6
CONTINUOUS
 10
74.734286
 20
19.330284
 40
0.180000
 50
357.854000
  1
N2
  0
CIRCLE
  8
7
  6
CONTINUOUS
 10
74.501274
 20
17.219267
 40
0.016000
  0
LINE
  8
4
  6
CONTINUOUS
 10
74.482920
 20
16.729448
 11
74.501274
 21
17.219267
  0
LINE
  8
4
  6
CONTINUOUS
 10
74.722752
 20
16.720462
 11
74.741105
 21
17.210280
  0
LINE
  8
4
  6
CONTINUOUS
 10
74.962583
 20
16.711475
 11
74.980937
 21
17.201294
  0
LINE
  8
4
  6
CONTINUOUS
 10
75.202415
 20
16.702488
 11
75.220769
 21
17.192307
  0
CIRCLE
  8
7
  6
CONTINUOUS
 10
74.741105
 20
17.210280
 40
0.016000
  0
CIRCLE
  8
7
  6
CONTINUOUS
 10
74.980937
 20
17.201294
 40
0.016000
  0
CIRCLE
  8
7
  6
CONTINUOUS
 10
75.220769
 20
17.192307
 40
0.016000
  0
LINE
  8
4
  6
CONTINUOUS
 10
73.883341
 20
16.751915
 11
75.801994
 21
16.680022
  0
POLYLINE
  8
3
  6
CONTINUOUS
 66
     1
  0
VERTEX
  8
3
  6
CONTINUOUS
 10
73.925413
 20
16.750338
  0
VERTEX
  8
3
  6
CONTINUOUS
 10
73.883341
 20
16.751915
  0
VERTEX
  8
3
  6
CONTINUOUS
 10
74.129806
 20
16.710025
  0
VERTEX
  8
3
  6
CONTINUOUS
 10
73.883341
 20
16.751915
  0
VERTEX
  8
3
  6
CONTINUOUS
 10
74.132250
 20
16.775243
  0
SEQEND
  8
3
  6
CONTINUOUS
  0
POLYLINE
  8
3
  6
CONTINUOUS
 66
     1
  0
VERTEX
  8
3
  6
CONTINUOUS
 10
75.774934
 20
16.681036
  0
VERTEX
  8
3
  6
CONTINUOUS
 10
75.801994
 20
16.680022
  0
VERTEX
  8
3
  6
CONTINUOUS
 10
75.555529
 20
16.721912
  0
VERTEX
  8
3
  6
CONTINUOUS
 10
75.801994
 20
16.680022
  0
VERTEX
  8
3
  6
CONTINUOUS
 10
75.553085
 20
16.656694
  0
SEQEND
  8
3
  6
CONTINUOUS
  0
TEXT
  8
3
  6
CONTINUOUS
 10
74.626071
 20
16.442261
 40
0.180000
 50
-2.146000
  1
N1
  0
TEXT
  8
3
  6
CONTINUOUS
 10
77.344018
 20
12.333923
 40
0.180000
 50
357.854000
  1
(COMP.= 1293 CORR.)
  0
TEXT
  8
3
  6
CONTINUOUS
 10
81.108505
 20
12.197387
 40
0.180000
 50
357.854000
  1
(EMENDAS ALTERNADAS)
  0
TEXT
  8
3
  6
CONTINUOUS
 10
73.021735
 20
11.170507
 40
0.180000
 50
357.854000
  1
CORRIDO (C=1293)
  0
TEXT
  8
5
  6
CONTINUOUS
 10
72.807800
 20
10.651460
 40
0.180000
 50
357.854000
  1
172 N7 %%c 25 C=1363
  0
TEXT
  8
3
  6
CONTINUOUS
 10
75.897501
 20
10.548099
 40
0.180000
 50
357.854000
  1
(EMENDAS COM SOLDA)
  0
TEXT
  8
3
  6
CONTINUOUS
 10
36.240266
 20
35.574187
 40
0.180000
 50
-254.459000
  1
71 N9 %%c 10 C/20
  0
TEXT
  8
3
  6
CONTINUOUS
 10
75.546396
 20
47.168315
 40
0.180000
 50
0.557000
  1
71 N9 %%c 10 C/20
  0
LINE
  8
3
  6
CONTINUOUS
 10
92.119590
 20
44.444066
 11
93.319590
 21
44.444066
  0
LINE
  8
3
  6
CONTINUOUS
 10
93.319590
 20
44.444066
 11
93.319590
 21
45.444066
  0
LINE
  8
3
  6
CONTINUOUS
 10
93.319590
 20
45.444066
 11
93.619590
 21
45.444066
  0
LINE
  8
3
  6
CONTINUOUS
 10
93.619590
 20
45.444066
 11
93.619590
 21
44.144066
  0
LINE
  8
3
  6
CONTINUOUS
 10
93.619590
 20
44.144066
 11
92.119590
 21
44.144066
  0
LINE
  8
3
  6
CONTINUOUS
 10
92.119590
 20
44.144066
 11
62.260477
 21
43.853772
  0
LINE
  8
3
  6
CONTINUOUS
 10
62.260477
 20
43.853772
 11
57.076607
 21
45.453772
  0
LINE
  8
3
  6
CONTINUOUS
 10
57.076607
 20
45.453772
 11
57.076607
 21
46.253772
  0
LINE
  8
3
  6
CONTINUOUS
 10
57.076607
 20
46.253772
 11
57.376607
 21
46.253772
  0
LINE
  8
3
  6
CONTINUOUS
 10
57.376607
 20
46.253772
 11
57.376607
 21
45.953772
  0
LINE
  8
3
  6
CONTINUOUS
 10
57.376607
 20
45.953772
 11
62.260477
 21
45.953772
  0
LINE
  8
3
  6
CONTINUOUS
 10
62.260477
 20
45.953772
 11
62.260477
 21
45.453772
  0
LINE
  8
3
  6
CONTINUOUS
 10
62.260477
 20
45.453772
 11
91.319590
 21
45.728065
  0
LINE
  8
3
  6
CONTINUOUS
 10
91.319590
 20
45.728065
 11
91.319590
 21
46.019755
  0
LINE
  8
3
  6
CONTINUOUS
 10
91.319590
 20
46.019755
 11
91.669590
 21
46.519755
  0
LINE
  8
3
  6
CONTINUOUS
 10
91.669590
 20
46.519755
 11
91.765358
 21
47.419979
  0
LINE
  8
3
  6
CONTINUOUS
 10
91.765358
 20
47.419979
 11
91.809590
 21
47.459755
  0
LINE
  8
3
  6
CONTINUOUS
 10
91.809590
 20
47.459755
 11
92.079590
 21
47.459755
  0
LINE
  8
3
  6
CONTINUOUS
 10
92.079590
 20
47.459755
 11
92.119590
 21
47.419755
  0
LINE
  8
3
  6
CONTINUOUS
 10
92.119590
 20
47.419755
 11
92.119590
 21
44.444066
  0
TEXT
  8
5
  6
CONTINUOUS
 10
93.826190
 20
48.214770
 40
0.180000
 50
90.000000
  1
 9 
  0
TEXT
  8
5
  6
CONTINUOUS
 10
90.481444
 20
48.675088
 40
0.180000
  1
81 N5 %%c 8 C/15 C=159
  0
TEXT
  8
5
  6
CONTINUOUS
 10
93.292990
 20
40.449595
 40
0.180000
 50
90.000000
  1
 57 
  0
TEXT
  8
5
  6
CONTINUOUS
 10
93.826190
 20
40.432995
 40
0.180000
 50
90.000000
  1
 59 
  0
TEXT
  8
5
  6
CONTINUOUS
 10
93.239590
 20
41.519595
 40
0.180000
 50
360.000000
  1
 9 
  0
TEXT
  8
5
  6
CONTINUOUS
 10
91.669774
 20
39.839005
 40
0.180000
  1
60 N4 %%c 6.3 C/20 C=225
  0
TEXT
  8
7
  6
CONTINUOUS
 10
108.363216
 20
40.016272
 40
0.265795
  1
EMENDAS COM SOLDA
  0
LINE
  8
6
  6
CONTINUOUS
 10
108.251724
 20
34.621073
 11
108.251724
 21
35.380448
  0
LINE
  8
6
  6
CONTINUOUS
 10
109.011099
 20
33.861698
 11
109.770474
 21
33.861698
  0
LINE
  8
6
  6
CONTINUOUS
 10
108.479536
 20
34.621073
 11
108.479536
 21
35.380448
  0
LINE
  8
6
  6
CONTINUOUS
 10
109.011099
 20
34.089510
 11
109.770474
 21
34.089510
  0
ARC
  8
6
  6
CONTINUOUS
 10
109.011099
 20
34.621073
 40
0.759375
 50
180.000000
 51
270.000000
  0
ARC
  8
6
  6
CONTINUOUS
 10
109.011099
 20
34.621073
 40
0.531563
 50
180.000000
 51
270.000000
  0
LINE
  8
3
  6
CONTINUOUS
 10
107.720161
 20
34.621073
 11
109.238911
 21
34.621073
  0
LINE
  8
3
  6
CONTINUOUS
 10
109.011099
 20
33.330135
 11
109.011099
 21
34.848885
  0
TEXT
  8
3
  6
CONTINUOUS
 10
108.628215
 20
34.661040
 40
0.136687
  1
R=
  0
ARC
  8
3
  6
CONTINUOUS
 10
109.011099
 20
34.621073
 40
1.183223
 50
180.000000
 51
270.000000
  0
LINE
  8
3
  6
CONTINUOUS
 10
107.910005
 20
34.621073
 11
108.017719
 21
34.621073
  0
LINE
  8
3
  6
CONTINUOUS
 10
107.908422
 20
34.540529
 11
107.747333
 21
34.701616
  0
LINE
  8
3
  6
CONTINUOUS
 10
109.011099
 20
33.519979
 11
109.011099
 21
33.627694
  0
LINE
  8
3
  6
CONTINUOUS
 10
109.091641
 20
33.518394
 11
108.930556
 21
33.357306
  0
TEXT
  8
3
  6
CONTINUOUS
 10
108.029455
 20
33.639429
 40
0.136687
 50
-45.000000
  1
C=
  0
LINE
  8
3
  6
CONTINUOUS
 10
110.288610
 20
34.279354
 11
110.288610
 21
33.671854
  0
LINE
  8
3
  6
CONTINUOUS
 10
109.960317
 20
34.089510
 11
110.478454
 21
34.089510
  0
LINE
  8
3
  6
CONTINUOUS
 10
109.960317
 20
33.861698
 11
110.478454
 21
33.861698
  0
CIRCLE
  8
3
  6
CONTINUOUS
 10
110.288610
 20
34.089510
 40
0.037931
  0
CIRCLE
  8
3
  6
CONTINUOUS
 10
110.288610
 20
34.089510
 40
0.018908
  0
CIRCLE
  8
3
  6
CONTINUOUS
 10
110.288610
 20
33.861698
 40
0.037931
  0
CIRCLE
  8
3
  6
CONTINUOUS
 10
110.288610
 20
33.861698
 40
0.018908
  0
TEXT
  8
3
  6
CONTINUOUS
 10
109.669033
 20
34.207047
 40
0.136687
  1
%%c mm
  0
LINE
  8
8
  6
CONTINUOUS
 10
107.513717
 20
36.655046
 11
116.016602
 21
36.655046
  0
LINE
  8
8
  6
CONTINUOUS
 10
116.016602
 20
36.655046
 11
116.016602
 21
32.858171
  0
LINE
  8
8
  6
CONTINUOUS
 10
116.016602
 20
32.858171
 11
107.513717
 21
32.858171
  0
LINE
  8
8
  6
CONTINUOUS
 10
107.513717
 20
32.858171
 11
107.513717
 21
36.655046
  0
LINE
  8
3
  6
CONTINUOUS
 10
109.011099
 20
34.621073
 11
108.626754
 21
34.253872
  0
LINE
  8
3
  6
CONTINUOUS
 10
108.626754
 20
34.253872
 11
108.769523
 21
34.431398
  0
LINE
  8
3
  6
CONTINUOUS
 10
108.769523
 20
34.431398
 11
108.626754
 21
34.253872
  0
LINE
  8
3
  6
CONTINUOUS
 10
108.626754
 20
34.253872
 11
108.810606
 21
34.388397
  0
LINE
  8
6
  6
CONTINUOUS
 10
108.251724
 20
35.380448
 11
108.260634
 21
35.376269
  0
LINE
  8
6
  6
CONTINUOUS
 10
108.260634
 20
35.376269
 11
108.269347
 21
35.372979
  0
LINE
  8
6
  6
CONTINUOUS
 10
108.269347
 20
35.372979
 11
108.281491
 21
35.369585
  0
LINE
  8
6
  6
CONTINUOUS
 10
108.281491
 20
35.369585
 11
108.301762
 21
35.366755
  0
LINE
  8
6
  6
CONTINUOUS
 10
108.301762
 20
35.366755
 11
108.324057
 21
35.367521
  0
LINE
  8
6
  6
CONTINUOUS
 10
108.324057
 20
35.367521
 11
108.343524
 21
35.371568
  0
LINE
  8
6
  6
CONTINUOUS
 10
108.343524
 20
35.371568
 11
108.352968
 21
35.374759
  0
LINE
  8
6
  6
CONTINUOUS
 10
108.352968
 20
35.374759
 11
108.365630
 21
35.380448
  0
LINE
  8
6
  6
CONTINUOUS
 10
108.479536
 20
35.380448
 11
108.470626
 21
35.384627
  0
LINE
  8
6
  6
CONTINUOUS
 10
108.470626
 20
35.384627
 11
108.461916
 21
35.387917
  0
LINE
  8
6
  6
CONTINUOUS
 10
108.461916
 20
35.387917
 11
108.449769
 21
35.391311
  0
LINE
  8
6
  6
CONTINUOUS
 10
108.449769
 20
35.391311
 11
108.429498
 21
35.394141
  0
LINE
  8
6
  6
CONTINUOUS
 10
108.429498
 20
35.394141
 11
108.407203
 21
35.393374
  0
LINE
  8
6
  6
CONTINUOUS
 10
108.407203
 20
35.393374
 11
108.387740
 21
35.389327
  0
LINE
  8
6
  6
CONTINUOUS
 10
108.387740
 20
35.389327
 11
108.378292
 21
35.386137
  0
LINE
  8
6
  6
CONTINUOUS
 10
108.378292
 20
35.386137
 11
108.365630
 21
35.380448
  0
LINE
  8
6
  6
CONTINUOUS
 10
109.770474
 20
33.861698
 11
109.774653
 21
33.870609
  0
LINE
  8
6
  6
CONTINUOUS
 10
109.774653
 20
33.870609
 11
109.777941
 21
33.879319
  0
LINE
  8
6
  6
CONTINUOUS
 10
109.777941
 20
33.879319
 11
109.781338
 21
33.891465
  0
LINE
  8
6
  6
CONTINUOUS
 10
109.781338
 20
33.891465
 11
109.784167
 21
33.911735
  0
LINE
  8
6
  6
CONTINUOUS
 10
109.784167
 20
33.911735
 11
109.783399
 21
33.934032
  0
LINE
  8
6
  6
CONTINUOUS
 10
109.783399
 20
33.934032
 11
109.779354
 21
33.953496
  0
LINE
  8
6
  6
CONTINUOUS
 10
109.779354
 20
33.953496
 11
109.776162
 21
33.962941
  0
LINE
  8
6
  6
CONTINUOUS
 10
109.776162
 20
33.962941
 11
109.770474
 21
33.975604
  0
LINE
  8
6
  6
CONTINUOUS
 10
109.770474
 20
34.089510
 11
109.766295
 21
34.080600
  0
LINE
  8
6
  6
CONTINUOUS
 10
109.766295
 20
34.080600
 11
109.763006
 21
34.071889
  0
LINE
  8
6
  6
CONTINUOUS
 10
109.763006
 20
34.071889
 11
109.759610
 21
34.059743
  0
LINE
  8
6
  6
CONTINUOUS
 10
109.759610
 20
34.059743
 11
109.756781
 21
34.039474
  0
LINE
  8
6
  6
CONTINUOUS
 10
109.756781
 20
34.039474
 11
109.757548
 21
34.017177
  0
LINE
  8
6
  6
CONTINUOUS
 10
109.757548
 20
34.017177
 11
109.761593
 21
33.997712
  0
LINE
  8
6
  6
CONTINUOUS
 10
109.761593
 20
33.997712
 11
109.764786
 21
33.988267
  0
LINE
  8
6
  6
CONTINUOUS
 10
109.764786
 20
33.988267
 11
109.770474
 21
33.975605
  0
LINE
  8
8
  6
CONTINUOUS
 10
107.513717
 20
40.921330
 11
116.016602
 21
40.921330
  0
LINE
  8
8
  6
CONTINUOUS
 10
116.016602
 20
40.921330
 11
116.016602
 21
37.124455
  0
LINE
  8
8
  6
CONTINUOUS
 10
116.016602
 20
37.124455
 11
107.513717
 21
37.124455
  0
LINE
  8
8
  6
CONTINUOUS
 10
107.513717
 20
37.124455
 11
107.513717
 21
40.921330
  0
LINE
  8
7
  6
CONTINUOUS
 10
107.891068
 20
30.628447
 11
109.549601
 21
30.628447
  0
LINE
  8
7
  6
CONTINUOUS
 10
107.891068
 20
30.352551
 11
108.809415
 21
30.352551
  0
LINE
  8
7
  6
CONTINUOUS
 10
109.053376
 20
30.551566
 11
110.720079
 21
30.551566
  0
LINE
  8
7
  6
CONTINUOUS
 10
108.313190
 20
30.275670
 11
110.720079
 21
30.275670
  0
LINE
  8
7
  6
CONTINUOUS
 10
107.891068
 20
30.904343
 11
110.289786
 21
30.904343
  0
LINE
  8
7
  6
CONTINUOUS
 10
109.793562
 20
30.827462
 11
110.720079
 21
30.827462
  0
LINE
  8
4
  6
CONTINUOUS
 10
108.203840
 20
29.810158
 11
108.918765
 21
29.810158
  0
LINE
  8
4
  6
CONTINUOUS
 10
108.313190
 20
30.381974
 11
108.313190
 21
29.700808
  0
LINE
  8
4
  6
CONTINUOUS
 10
108.809415
 20
30.473464
 11
108.809415
 21
29.700808
  0
CIRCLE
  8
3
  6
CONTINUOUS
 10
108.313190
 20
29.810158
 40
0.022758
  0
CIRCLE
  8
3
  6
CONTINUOUS
 10
108.313190
 20
29.810158
 40
0.011345
  0
CIRCLE
  8
3
  6
CONTINUOUS
 10
108.809415
 20
29.810158
 40
0.022758
  0
CIRCLE
  8
3
  6
CONTINUOUS
 10
108.809415
 20
29.810158
 40
0.011345
  0
LINE
  8
4
  6
CONTINUOUS
 10
108.700065
 20
29.810158
 11
109.162726
 21
29.810158
  0
LINE
  8
4
  6
CONTINUOUS
 10
109.053376
 20
30.702191
 11
109.053376
 21
29.700808
  0
CIRCLE
  8
3
  6
CONTINUOUS
 10
108.809415
 20
29.810158
 40
0.022758
  0
CIRCLE
  8
3
  6
CONTINUOUS
 10
108.809415
 20
29.810158
 40
0.011345
  0
CIRCLE
  8
3
  6
CONTINUOUS
 10
109.053376
 20
29.810158
 40
0.022758
  0
CIRCLE
  8
3
  6
CONTINUOUS
 10
109.053376
 20
29.810158
 40
0.011345
  0
LINE
  8
4
  6
CONTINUOUS
 10
108.944026
 20
29.810158
 11
109.658951
 21
29.810158
  0
LINE
  8
4
  6
CONTINUOUS
 10
109.549601
 20
30.702191
 11
109.549601
 21
29.700808
  0
CIRCLE
  8
3
  6
CONTINUOUS
 10
109.053376
 20
29.810158
 40
0.022758
  0
CIRCLE
  8
3
  6
CONTINUOUS
 10
109.053376
 20
29.810158
 40
0.011345
  0
CIRCLE
  8
3
  6
CONTINUOUS
 10
109.549601
 20
29.810158
 40
0.022758
  0
CIRCLE
  8
3
  6
CONTINUOUS
 10
109.549601
 20
29.810158
 40
0.011345
  0
LINE
  8
4
  6
CONTINUOUS
 10
109.440251
 20
29.810158
 11
109.902912
 21
29.810158
  0
LINE
  8
4
  6
CONTINUOUS
 10
109.793562
 20
30.953790
 11
109.793562
 21
29.700808
  0
CIRCLE
  8
3
  6
CONTINUOUS
 10
109.549601
 20
29.810158
 40
0.022758
  0
CIRCLE
  8
3
  6
CONTINUOUS
 10
109.549601
 20
29.810158
 40
0.011345
  0
CIRCLE
  8
3
  6
CONTINUOUS
 10
109.793562
 20
29.810158
 40
0.022758
  0
CIRCLE
  8
3
  6
CONTINUOUS
 10
109.793562
 20
29.810158
 40
0.011345
  0
LINE
  8
4
  6
CONTINUOUS
 10
109.684212
 20
29.810158
 11
110.399136
 21
29.810158
  0
LINE
  8
4
  6
CONTINUOUS
 10
110.289786
 20
31.030032
 11
110.289786
 21
29.700808
  0
CIRCLE
  8
3
  6
CONTINUOUS
 10
109.793562
 20
29.810158
 40
0.022758
  0
CIRCLE
  8
3
  6
CONTINUOUS
 10
109.793562
 20
29.810158
 40
0.011345
  0
CIRCLE
  8
3
  6
CONTINUOUS
 10
110.289786
 20
29.810158
 40
0.022758
  0
CIRCLE
  8
3
  6
CONTINUOUS
 10
110.289786
 20
29.810158
 40
0.011345
  0
LINE
  8
6
  6
CONTINUOUS
 10
112.434398
 20
31.588377
 11
114.712521
 21
31.588377
  0
LINE
  8
6
  6
CONTINUOUS
 10
114.712521
 20
31.588377
 11
114.712521
 21
28.930565
  0
LINE
  8
6
  6
CONTINUOUS
 10
114.712521
 20
28.930565
 11
112.434398
 21
28.930565
  0
LINE
  8
6
  6
CONTINUOUS
 10
112.434398
 20
28.930565
 11
112.434398
 21
31.588377
  0
LINE
  8
6
  6
CONTINUOUS
 10
112.434398
 20
31.208690
 11
114.712521
 21
31.208690
  0
LINE
  8
3
  6
CONTINUOUS
 10
112.434398
 20
30.449315
 11
114.712521
 21
30.449315
  0
LINE
  8
3
  6
CONTINUOUS
 10
112.434398
 20
30.069627
 11
114.712521
 21
30.069627
  0
LINE
  8
6
  6
CONTINUOUS
 10
113.193773
 20
28.930565
 11
113.193773
 21
31.588377
  0
LINE
  8
6
  6
CONTINUOUS
 10
113.953148
 20
28.930565
 11
113.953148
 21
31.588377
  0
TEXT
  8
3
  6
CONTINUOUS
 10
112.509397
 20
31.320521
 40
0.167063
  1
%%c mm
  0
LINE
  8
8
  6
CONTINUOUS
 10
107.513717
 20
32.348508
 11
116.016602
 21
32.348508
  0
LINE
  8
8
  6
CONTINUOUS
 10
116.016602
 20
32.348508
 11
116.016602
 21
28.551633
  0
LINE
  8
8
  6
CONTINUOUS
 10
116.016602
 20
28.551633
 11
107.513717
 21
28.551633
  0
LINE
  8
8
  6
CONTINUOUS
 10
107.513717
 20
28.551633
 11
107.513717
 21
32.348508
  0
TEXT
  8
7
  6
CONTINUOUS
 10
108.552897
 20
31.787240
 40
0.227812
  1
EMENDAS ALTERNADAS
  0
TEXT
  8
3
  6
CONTINUOUS
 10
113.441538
 20
31.320521
 40
0.167063
  1
A
  0
TEXT
  8
3
  6
CONTINUOUS
 10
114.200916
 20
31.320521
 40
0.167063
  1
B
  0
TEXT
  8
3
  6
CONTINUOUS
 10
112.509397
 20
30.561146
 40
0.167063
  1
8.0
  0
TEXT
  8
3
  6
CONTINUOUS
 10
112.509397
 20
30.181458
 40
0.167063
  1
10.0
  0
TEXT
  8
3
  6
CONTINUOUS
 10
108.474998
 20
29.836085
 40
0.136687
  1
A
  0
TEXT
  8
3
  6
CONTINUOUS
 10
108.878297
 20
29.836778
 40
0.136687
  1
B
  0
TEXT
  8
3
  6
CONTINUOUS
 10
109.253895
 20
29.842224
 40
0.136687
  1
A
  0
TEXT
  8
3
  6
CONTINUOUS
 10
109.994080
 20
29.842224
 40
0.136687
  1
A
  0
TEXT
  8
3
  6
CONTINUOUS
 10
109.618483
 20
29.836778
 40
0.136687
  1
B
  0
TEXT
  8
3
  6
CONTINUOUS
 10
112.509397
 20
29.801771
 40
0.167063
  1
12.5
  0
LINE
  8
6
  6
CONTINUOUS
 10
110.731389
 20
35.717384
 11
113.768889
 21
35.717384
  0
LINE
  8
6
  6
CONTINUOUS
 10
113.768889
 20
35.717384
 11
113.768889
 21
33.692384
  0
LINE
  8
6
  6
CONTINUOUS
 10
113.768889
 20
33.692384
 11
110.731389
 21
33.692384
  0
LINE
  8
6
  6
CONTINUOUS
 10
110.731389
 20
33.692384
 11
110.731389
 21
35.717384
  0
LINE
  8
6
  6
CONTINUOUS
 10
110.731389
 20
35.211134
 11
113.768889
 21
35.211134
  0
LINE
  8
3
  6
CONTINUOUS
 10
110.731389
 20
34.704884
 11
113.768889
 21
34.704884
  0
LINE
  8
3
  6
CONTINUOUS
 10
110.731389
 20
34.198634
 11
113.768889
 21
34.198634
  0
LINE
  8
6
  6
CONTINUOUS
 10
111.743889
 20
33.692384
 11
111.743889
 21
35.717384
  0
LINE
  8
6
  6
CONTINUOUS
 10
112.756389
 20
33.692384
 11
112.756389
 21
35.717384
  0
TEXT
  8
3
  6
CONTINUOUS
 10
110.831389
 20
35.360241
 40
0.222750
  1
%%c mm
  0
TEXT
  8
3
  6
CONTINUOUS
 10
112.074246
 20
35.360241
 40
0.222750
  1
R=
  0
TEXT
  8
3
  6
CONTINUOUS
 10
113.086747
 20
35.360241
 40
0.222750
  1
C=
  0
TEXT
  8
3
  6
CONTINUOUS
 10
110.831389
 20
34.853991
 40
0.222750
  1
16,0
  0
TEXT
  8
3
  6
CONTINUOUS
 10
110.831389
 20
34.347741
 40
0.222750
  1
20,0
  0
TEXT
  8
3
  6
CONTINUOUS
 10
110.831389
 20
33.841491
 40
0.222750
  1
25,0
  0
TEXT
  8
3
  6
CONTINUOUS
 10
112.074246
 20
34.853991
 40
0.222750
  1
 4
  0
TEXT
  8
3
  6
CONTINUOUS
 10
112.074246
 20
34.347741
 40
0.222750
  1
 8
  0
TEXT
  8
3
  6
CONTINUOUS
 10
112.074246
 20
33.841491
 40
0.222750
  1
10
  0
TEXT
  8
3
  6
CONTINUOUS
 10
113.086747
 20
34.853991
 40
0.222750
  1
 9
  0
TEXT
  8
3
  6
CONTINUOUS
 10
113.086747
 20
34.347741
 40
0.222750
  1
16
  0
TEXT
  8
3
  6
CONTINUOUS
 10
113.086747
 20
33.841491
 40
0.222750
  1
20
  0
TEXT
  8
3
  6
CONTINUOUS
 10
113.441538
 20
30.181458
 40
0.167063
  1
60
  0
TEXT
  8
3
  6
CONTINUOUS
 10
113.441538
 20
29.801771
 40
0.167063
  1
80
  0
TEXT
  8
3
  6
CONTINUOUS
 10
114.200916
 20
30.561146
 40
0.167063
  1
10
  0
TEXT
  8
3
  6
CONTINUOUS
 10
114.200916
 20
30.181458
 40
0.167063
  1
15
  0
TEXT
  8
3
  6
CONTINUOUS
 10
114.200916
 20
29.801771
 40
0.167063
  1
20
  0
TEXT
  8
3
  6
CONTINUOUS
 10
107.895371
 20
39.290011
 40
0.180000
  1
DEVERAO SER EXECUTADAS DE TOPO
  0
TEXT
  8
3
  6
CONTINUOUS
 10
107.895371
 20
38.834364
 40
0.180000
  1
(POR CALDEAMENTO OU COM ELETRODO)
  0
TEXT
  8
7
  6
CONTINUOUS
 10
108.552897
 20
36.093779
 40
0.228000
  1
RAIO DE CURVATURA
  0
TEXT
  8
3
  6
CONTINUOUS
 10
107.895371
 20
38.378717
 40
0.180000
  1
DE ACORDO COM O ITEM  9.5.4 DA NBR 6118
  0
TEXT
  8
3
  6
CONTINUOUS
 10
107.895371
 20
37.923069
 40
0.180000
  1
OBEDECIDO O DISPOSTO NO ITEM  8.3.9.
  0
LINE
  8
3
  6
CONTINUOUS
 10
112.434398
 20
29.689940
 11
114.712521
 21
29.689940
  0
TEXT
  8
3
  6
CONTINUOUS
 10
112.509397
 20
29.042396
 40
0.167000
  1
20
  0
LINE
  8
3
  6
CONTINUOUS
 10
112.434398
 20
30.829002
 11
114.712521
 21
30.829002
  0
TEXT
  8
3
  6
CONTINUOUS
 10
114.200916
 20
30.940833
 40
0.167063
  1
10
  0
TEXT
  8
3
  6
CONTINUOUS
 10
112.509397
 20
30.940833
 40
0.167000
  1
6.3
  0
TEXT
  8
3
  6
CONTINUOUS
 10
113.441538
 20
29.042396
 40
0.167000
  1
130
  0
TEXT
  8
3
  6
CONTINUOUS
 10
114.200916
 20
29.042396
 40
0.167000
  1
30
  0
LINE
  8
3
  6
CONTINUOUS
 10
112.434398
 20
29.310252
 11
114.712521
 21
29.310252
  0
TEXT
  8
3
  6
CONTINUOUS
 10
112.509397
 20
29.422083
 40
0.167000
  1
16
  0
TEXT
  8
3
  6
CONTINUOUS
 10
113.441538
 20
29.422083
 40
0.167000
  1
100
  0
TEXT
  8
3
  6
CONTINUOUS
 10
114.200916
 20
29.422083
 40
0.167000
  1
25
  0
TEXT
  8
3
  6
CONTINUOUS
 10
113.441538
 20
30.561146
 40
0.167000
  1
50
  0
TEXT
  8
3
  6
CONTINUOUS
 10
113.441538
 20
30.940833
 40
0.167000
  1
40
  0
LINE
  8
6
  6
CONTINUOUS
 10
106.300000
 20
57.448589
 11
106.300000
 21
56.645454
  0
LINE
  8
6
  6
CONTINUOUS
 10
117.300000
 20
57.448589
 11
117.300000
 21
56.645454
  0
LINE
  8
6
  6
CONTINUOUS
 10
106.300000
 20
56.645454
 11
117.300000
 21
56.645454
  0
LINE
  8
6
  6
CONTINUOUS
 10
109.250000
 20
56.645454
 11
109.250000
 21
57.448589
  0
LINE
  8
6
  6
CONTINUOUS
 10
110.883786
 20
56.645454
 11
110.883786
 21
57.448589
  0
LINE
  8
6
  6
CONTINUOUS
 10
112.757830
 20
56.645454
 11
112.757830
 21
57.448589
  0
LINE
  8
6
  6
CONTINUOUS
 10
114.755293
 20
56.645454
 11
114.755293
 21
57.448589
  0
TEXT
  8
7
  6
CONTINUOUS
 10
111.451868
 20
56.748682
 40
0.200000
  1
(mm)
  0
TEXT
  8
7
  6
CONTINUOUS
 10
109.333359
 20
57.552500
 40
0.350000
  1
TABELA DE FERROS
  0
LINE
  8
6
  6
CONTINUOUS
 10
106.300000
 20
57.448589
 11
117.300000
 21
57.448589
  0
TEXT
  8
7
  6
CONTINUOUS
 10
109.427866
 20
57.007083
 40
0.175000
  1
POSICAO
  0
TEXT
  8
7
  6
CONTINUOUS
 10
111.196076
 20
57.088827
 40
0.200000
  1
BITOLA
  0
TEXT
  8
7
  6
CONTINUOUS
 10
112.838474
 20
57.005622
 40
0.175000
  1
QUANTIDADE
  0
TEXT
  8
6
  6
CONTINUOUS
 10
114.949849
 20
57.132898
 40
0.190000
  1
COMPRIMENTO
  0
TEXT
  8
7
  6
CONTINUOUS
 10
114.954732
 20
56.751723
 40
0.190000
  1
UNITARIO
  0
TEXT
  8
7
  6
CONTINUOUS
 10
116.560009
 20
56.756566
 40
0.175000
  1
(cm)
  0
TEXT
  8
7
  6
CONTINUOUS
 10
116.560009
 20
56.756566
 40
0.175000
  1
(cm)
  0
LINE
  8
6
  6
CONTINUOUS
 10
106.300000
 20
56.645454
 11
117.300000
 21
56.645454
  0
LINE
  8
6
  6
CONTINUOUS
 10
117.300000
 20
56.207954
 11
109.250000
 21
56.207954
  0
LINE
  8
6
  6
CONTINUOUS
 10
106.300000
 20
56.207954
 11
106.300000
 21
56.645454
  0
LINE
  8
6
  6
CONTINUOUS
 10
117.300000
 20
56.207954
 11
117.300000
 21
56.645454
  0
LINE
  8
6
  6
CONTINUOUS
 10
106.300000
 20
56.645454
 11
117.300000
 21
56.645454
  0
LINE
  8
6
  6
CONTINUOUS
 10
109.250000
 20
56.207954
 11
109.250000
 21
55.857954
  0
LINE
  8
6
  6
CONTINUOUS
 10
110.883786
 20
56.207954
 11
110.883786
 21
55.857954
  0
LINE
  8
6
  6
CONTINUOUS
 10
112.757830
 20
56.207954
 11
112.757830
 21
55.857954
  0
LINE
  8
6
  6
CONTINUOUS
 10
114.755293
 20
56.207954
 11
114.755293
 21
55.857954
  0
LINE
  8
6
  6
CONTINUOUS
 10
106.300000
 20
55.857954
 11
106.300000
 21
56.207954
  0
LINE
  8
6
  6
CONTINUOUS
 10
117.300000
 20
55.857954
 11
117.300000
 21
56.207954
  0
TEXT
  8
6
  6
CONTINUOUS
 10
109.720053
 20
55.932953
 40
0.200000
  1
  1
  0
TEXT
  8
6
  6
CONTINUOUS
 10
113.452985
 20
55.938442
 40
0.200000
  1
  91
  0
TEXT
  8
6
  6
CONTINUOUS
 10
115.488898
 20
55.932579
 40
0.200000
  1
-CORR-
  0
TEXT
  8
6
  6
CONTINUOUS
 10
111.165712
 20
55.947995
 40
0.200000
  1
   12.5
  0
LINE
  8
6
  6
CONTINUOUS
 10
109.250000
 20
55.857954
 11
109.250000
 21
55.507954
  0
LINE
  8
6
  6
CONTINUOUS
 10
110.883786
 20
55.857954
 11
110.883786
 21
55.507954
  0
LINE
  8
6
  6
CONTINUOUS
 10
112.757830
 20
55.857954
 11
112.757830
 21
55.507954
  0
LINE
  8
6
  6
CONTINUOUS
 10
114.755293
 20
55.857954
 11
114.755293
 21
55.507954
  0
LINE
  8
6
  6
CONTINUOUS
 10
106.300000
 20
55.507954
 11
106.300000
 21
55.857954
  0
LINE
  8
6
  6
CONTINUOUS
 10
117.300000
 20
55.507954
 11
117.300000
 21
55.857954
  0
TEXT
  8
6
  6
CONTINUOUS
 10
109.720053
 20
55.582954
 40
0.200000
  1
  2
  0
TEXT
  8
6
  6
CONTINUOUS
 10
113.452985
 20
55.588442
 40
0.200000
  1
  91
  0
TEXT
  8
6
  6
CONTINUOUS
 10
115.488898
 20
55.582579
 40
0.200000
  1
-CORR-
  0
TEXT
  8
6
  6
CONTINUOUS
 10
111.165712
 20
55.597995
 40
0.200000
  1
   10  
  0
LINE
  8
6
  6
CONTINUOUS
 10
109.250000
 20
55.507954
 11
109.250000
 21
55.157954
  0
LINE
  8
6
  6
CONTINUOUS
 10
110.883786
 20
55.507954
 11
110.883786
 21
55.157954
  0
LINE
  8
6
  6
CONTINUOUS
 10
112.757830
 20
55.507954
 11
112.757830
 21
55.157954
  0
LINE
  8
6
  6
CONTINUOUS
 10
114.755293
 20
55.507954
 11
114.755293
 21
55.157954
  0
LINE
  8
6
  6
CONTINUOUS
 10
106.300000
 20
55.157954
 11
106.300000
 21
55.507954
  0
LINE
  8
6
  6
CONTINUOUS
 10
117.300000
 20
55.157954
 11
117.300000
 21
55.507954
  0
TEXT
  8
6
  6
CONTINUOUS
 10
109.720053
 20
55.232954
 40
0.200000
  1
  3
  0
TEXT
  8
6
  6
CONTINUOUS
 10
113.452985
 20
55.238442
 40
0.200000
  1
 104
  0
TEXT
  8
6
  6
CONTINUOUS
 10
115.488898
 20
55.232580
 40
0.200000
  1
   363
  0
TEXT
  8
6
  6
CONTINUOUS
 10
111.165712
 20
55.247995
 40
0.200000
  1
   10  
  0
LINE
  8
6
  6
CONTINUOUS
 10
109.250000
 20
55.157954
 11
109.250000
 21
54.807954
  0
LINE
  8
6
  6
CONTINUOUS
 10
110.883786
 20
55.157954
 11
110.883786
 21
54.807954
  0
LINE
  8
6
  6
CONTINUOUS
 10
112.757830
 20
55.157954
 11
112.757830
 21
54.807954
  0
LINE
  8
6
  6
CONTINUOUS
 10
114.755293
 20
55.157954
 11
114.755293
 21
54.807954
  0
LINE
  8
6
  6
CONTINUOUS
 10
106.300000
 20
54.807954
 11
106.300000
 21
55.157954
  0
LINE
  8
6
  6
CONTINUOUS
 10
117.300000
 20
54.807954
 11
117.300000
 21
55.157954
  0
TEXT
  8
6
  6
CONTINUOUS
 10
109.720053
 20
54.882954
 40
0.200000
  1
  4
  0
TEXT
  8
6
  6
CONTINUOUS
 10
113.452985
 20
54.888442
 40
0.200000
  1
  60
  0
TEXT
  8
6
  6
CONTINUOUS
 10
115.488898
 20
54.882580
 40
0.200000
  1
   240
  0
TEXT
  8
6
  6
CONTINUOUS
 10
111.165712
 20
54.897995
 40
0.200000
  1
    6.3
  0
LINE
  8
6
  6
CONTINUOUS
 10
109.250000
 20
54.807954
 11
109.250000
 21
54.457954
  0
LINE
  8
6
  6
CONTINUOUS
 10
110.883786
 20
54.807954
 11
110.883786
 21
54.457954
  0
LINE
  8
6
  6
CONTINUOUS
 10
112.757830
 20
54.807954
 11
112.757830
 21
54.457954
  0
LINE
  8
6
  6
CONTINUOUS
 10
114.755293
 20
54.807954
 11
114.755293
 21
54.457954
  0
LINE
  8
6
  6
CONTINUOUS
 10
106.300000
 20
54.457954
 11
106.300000
 21
54.807954
  0
LINE
  8
6
  6
CONTINUOUS
 10
117.300000
 20
54.457954
 11
117.300000
 21
54.807954
  0
TEXT
  8
6
  6
CONTINUOUS
 10
109.720053
 20
54.532954
 40
0.200000
  1
  5
  0
TEXT
  8
6
  6
CONTINUOUS
 10
113.452985
 20
54.538442
 40
0.200000
  1
  81
  0
TEXT
  8
6
  6
CONTINUOUS
 10
115.488898
 20
54.532580
 40
0.200000
  1
   164
  0
TEXT
  8
6
  6
CONTINUOUS
 10
111.165712
 20
54.547995
 40
0.200000
  1
    8  
  0
LINE
  8
6
  6
CONTINUOUS
 10
109.250000
 20
54.457954
 11
109.250000
 21
54.107954
  0
LINE
  8
6
  6
CONTINUOUS
 10
110.883786
 20
54.457954
 11
110.883786
 21
54.107954
  0
LINE
  8
6
  6
CONTINUOUS
 10
112.757830
 20
54.457954
 11
112.757830
 21
54.107954
  0
LINE
  8
6
  6
CONTINUOUS
 10
114.755293
 20
54.457954
 11
114.755293
 21
54.107954
  0
LINE
  8
6
  6
CONTINUOUS
 10
106.300000
 20
54.107954
 11
106.300000
 21
54.457954
  0
LINE
  8
6
  6
CONTINUOUS
 10
117.300000
 20
54.107954
 11
117.300000
 21
54.457954
  0
TEXT
  8
6
  6
CONTINUOUS
 10
109.720053
 20
54.182954
 40
0.200000
  1
  6
  0
TEXT
  8
6
  6
CONTINUOUS
 10
113.452985
 20
54.188442
 40
0.200000
  1
  84
  0
TEXT
  8
6
  6
CONTINUOUS
 10
115.488898
 20
54.182580
 40
0.200000
  1
   422
  0
TEXT
  8
6
  6
CONTINUOUS
 10
111.165712
 20
54.197995
 40
0.200000
  1
    8  
  0
LINE
  8
6
  6
CONTINUOUS
 10
109.250000
 20
54.107954
 11
109.250000
 21
53.757954
  0
LINE
  8
6
  6
CONTINUOUS
 10
110.883786
 20
54.107954
 11
110.883786
 21
53.757954
  0
LINE
  8
6
  6
CONTINUOUS
 10
112.757830
 20
54.107954
 11
112.757830
 21
53.757954
  0
LINE
  8
6
  6
CONTINUOUS
 10
114.755293
 20
54.107954
 11
114.755293
 21
53.757954
  0
LINE
  8
6
  6
CONTINUOUS
 10
106.300000
 20
53.757954
 11
106.300000
 21
54.107954
  0
LINE
  8
6
  6
CONTINUOUS
 10
117.300000
 20
53.757954
 11
117.300000
 21
54.107954
  0
TEXT
  8
6
  6
CONTINUOUS
 10
109.720053
 20
53.832954
 40
0.200000
  1
  7
  0
TEXT
  8
6
  6
CONTINUOUS
 10
113.452985
 20
53.838442
 40
0.200000
  1
 172
  0
TEXT
  8
6
  6
CONTINUOUS
 10
115.488898
 20
53.832580
 40
0.200000
  1
  1363
  0
TEXT
  8
6
  6
CONTINUOUS
 10
111.165712
 20
53.847995
 40
0.200000
  1
   25  
  0
LINE
  8
6
  6
CONTINUOUS
 10
109.250000
 20
53.757954
 11
109.250000
 21
53.407954
  0
LINE
  8
6
  6
CONTINUOUS
 10
110.883786
 20
53.757954
 11
110.883786
 21
53.407954
  0
LINE
  8
6
  6
CONTINUOUS
 10
112.757830
 20
53.757954
 11
112.757830
 21
53.407954
  0
LINE
  8
6
  6
CONTINUOUS
 10
114.755293
 20
53.757954
 11
114.755293
 21
53.407954
  0
LINE
  8
6
  6
CONTINUOUS
 10
106.300000
 20
53.407954
 11
106.300000
 21
53.757954
  0
LINE
  8
6
  6
CONTINUOUS
 10
117.300000
 20
53.407954
 11
117.300000
 21
53.757954
  0
TEXT
  8
6
  6
CONTINUOUS
 10
109.720053
 20
53.482954
 40
0.200000
  1
  8
  0
TEXT
  8
6
  6
CONTINUOUS
 10
113.452985
 20
53.488442
 40
0.200000
  1
  19
  0
TEXT
  8
6
  6
CONTINUOUS
 10
115.488898
 20
53.482580
 40
0.200000
  1
-CORR-
  0
TEXT
  8
6
  6
CONTINUOUS
 10
111.165712
 20
53.497995
 40
0.200000
  1
   12.5
  0
LINE
  8
6
  6
CONTINUOUS
 10
109.250000
 20
53.407954
 11
109.250000
 21
53.057954
  0
LINE
  8
6
  6
CONTINUOUS
 10
110.883786
 20
53.407954
 11
110.883786
 21
53.057954
  0
LINE
  8
6
  6
CONTINUOUS
 10
112.757830
 20
53.407954
 11
112.757830
 21
53.057954
  0
LINE
  8
6
  6
CONTINUOUS
 10
114.755293
 20
53.407954
 11
114.755293
 21
53.057954
  0
LINE
  8
6
  6
CONTINUOUS
 10
106.300000
 20
53.057954
 11
106.300000
 21
53.407954
  0
LINE
  8
6
  6
CONTINUOUS
 10
117.300000
 20
53.057954
 11
117.300000
 21
53.407954
  0
TEXT
  8
6
  6
CONTINUOUS
 10
109.720053
 20
53.132954
 40
0.200000
  1
  9
  0
TEXT
  8
6
  6
CONTINUOUS
 10
113.452985
 20
53.138442
 40
0.200000
  1
  77
  0
TEXT
  8
6
  6
CONTINUOUS
 10
115.488898
 20
53.132580
 40
0.200000
  1
-CORR-
  0
TEXT
  8
6
  6
CONTINUOUS
 10
111.165712
 20
53.147996
 40
0.200000
  1
   10  
  0
LINE
  8
6
  6
CONTINUOUS
 10
109.250000
 20
53.057954
 11
109.250000
 21
52.707954
  0
LINE
  8
6
  6
CONTINUOUS
 10
110.883786
 20
53.057954
 11
110.883786
 21
52.707954
  0
LINE
  8
6
  6
CONTINUOUS
 10
112.757830
 20
53.057954
 11
112.757830
 21
52.707954
  0
LINE
  8
6
  6
CONTINUOUS
 10
114.755293
 20
53.057954
 11
114.755293
 21
52.707954
  0
LINE
  8
6
  6
CONTINUOUS
 10
106.300000
 20
52.707954
 11
106.300000
 21
53.057954
  0
LINE
  8
6
  6
CONTINUOUS
 10
117.300000
 20
52.707954
 11
117.300000
 21
53.057954
  0
TEXT
  8
6
  6
CONTINUOUS
 10
109.720053
 20
52.782954
 40
0.200000
  1
 10
  0
TEXT
  8
6
  6
CONTINUOUS
 10
113.452985
 20
52.788443
 40
0.200000
  1
  16
  0
TEXT
  8
6
  6
CONTINUOUS
 10
115.488898
 20
52.782580
 40
0.200000
  1
-CORR-
  0
TEXT
  8
6
  6
CONTINUOUS
 10
111.165712
 20
52.797996
 40
0.200000
  1
    6.3
  0
LINE
  8
6
  6
CONTINUOUS
 10
109.250000
 20
52.707954
 11
109.250000
 21
52.357955
  0
LINE
  8
6
  6
CONTINUOUS
 10
110.883786
 20
52.707954
 11
110.883786
 21
52.357955
  0
LINE
  8
6
  6
CONTINUOUS
 10
112.757830
 20
52.707954
 11
112.757830
 21
52.357955
  0
LINE
  8
6
  6
CONTINUOUS
 10
114.755293
 20
52.707954
 11
114.755293
 21
52.357955
  0
LINE
  8
6
  6
CONTINUOUS
 10
106.300000
 20
52.357955
 11
106.300000
 21
52.707954
  0
LINE
  8
6
  6
CONTINUOUS
 10
117.300000
 20
52.357955
 11
117.300000
 21
52.707954
  0
TEXT
  8
6
  6
CONTINUOUS
 10
109.720053
 20
52.432954
 40
0.200000
  1
 11
  0
TEXT
  8
6
  6
CONTINUOUS
 10
113.452985
 20
52.438443
 40
0.200000
  1
  20
  0
TEXT
  8
6
  6
CONTINUOUS
 10
115.488898
 20
52.432580
 40
0.200000
  1
-CORR-
  0
TEXT
  8
6
  6
CONTINUOUS
 10
111.165712
 20
52.447996
 40
0.200000
  1
   20  
  0
LINE
  8
6
  6
CONTINUOUS
 10
109.250000
 20
52.357955
 11
109.250000
 21
52.007955
  0
LINE
  8
6
  6
CONTINUOUS
 10
110.883786
 20
52.357955
 11
110.883786
 21
52.007955
  0
LINE
  8
6
  6
CONTINUOUS
 10
112.757830
 20
52.357955
 11
112.757830
 21
52.007955
  0
LINE
  8
6
  6
CONTINUOUS
 10
114.755293
 20
52.357955
 11
114.755293
 21
52.007955
  0
LINE
  8
6
  6
CONTINUOUS
 10
106.300000
 20
52.007955
 11
106.300000
 21
52.357955
  0
LINE
  8
6
  6
CONTINUOUS
 10
117.300000
 20
52.007955
 11
117.300000
 21
52.357955
  0
TEXT
  8
6
  6
CONTINUOUS
 10
109.720053
 20
52.082954
 40
0.200000
  1
 12
  0
TEXT
  8
6
  6
CONTINUOUS
 10
113.452985
 20
52.088443
 40
0.200000
  1
 352
  0
TEXT
  8
6
  6
CONTINUOUS
 10
115.488898
 20
52.082580
 40
0.200000
  1
   260
  0
TEXT
  8
6
  6
CONTINUOUS
 10
111.165712
 20
52.097996
 40
0.200000
  1
    8  
  0
LINE
  8
6
  6
CONTINUOUS
 10
109.250000
 20
52.007955
 11
109.250000
 21
51.657955
  0
LINE
  8
6
  6
CONTINUOUS
 10
110.883786
 20
52.007955
 11
110.883786
 21
51.657955
  0
LINE
  8
6
  6
CONTINUOUS
 10
112.757830
 20
52.007955
 11
112.757830
 21
51.657955
  0
LINE
  8
6
  6
CONTINUOUS
 10
114.755293
 20
52.007955
 11
114.755293
 21
51.657955
  0
LINE
  8
6
  6
CONTINUOUS
 10
106.300000
 20
51.657955
 11
106.300000
 21
52.007955
  0
LINE
  8
6
  6
CONTINUOUS
 10
117.300000
 20
51.657955
 11
117.300000
 21
52.007955
  0
TEXT
  8
6
  6
CONTINUOUS
 10
109.720053
 20
51.732955
 40
0.200000
  1
 13
  0
TEXT
  8
6
  6
CONTINUOUS
 10
113.452985
 20
51.738443
 40
0.200000
  1
  44
  0
TEXT
  8
6
  6
CONTINUOUS
 10
115.488898
 20
51.732580
 40
0.200000
  1
   189
  0
TEXT
  8
6
  6
CONTINUOUS
 10
111.165712
 20
51.747996
 40
0.200000
  1
    6.3
  0
LINE
  8
6
  6
CONTINUOUS
 10
109.250000
 20
51.657955
 11
109.250000
 21
51.307955
  0
LINE
  8
6
  6
CONTINUOUS
 10
110.883786
 20
51.657955
 11
110.883786
 21
51.307955
  0
LINE
  8
6
  6
CONTINUOUS
 10
112.757830
 20
51.657955
 11
112.757830
 21
51.307955
  0
LINE
  8
6
  6
CONTINUOUS
 10
114.755293
 20
51.657955
 11
114.755293
 21
51.307955
  0
LINE
  8
6
  6
CONTINUOUS
 10
106.300000
 20
51.307955
 11
106.300000
 21
51.657955
  0
LINE
  8
6
  6
CONTINUOUS
 10
117.300000
 20
51.307955
 11
117.300000
 21
51.657955
  0
TEXT
  8
6
  6
CONTINUOUS
 10
109.720053
 20
51.382955
 40
0.200000
  1
 14
  0
TEXT
  8
6
  6
CONTINUOUS
 10
113.452985
 20
51.388443
 40
0.200000
  1
  48
  0
TEXT
  8
6
  6
CONTINUOUS
 10
115.488898
 20
51.382581
 40
0.200000
  1
   204
  0
TEXT
  8
6
  6
CONTINUOUS
 10
111.165712
 20
51.397996
 40
0.200000
  1
    6.3
  0
LINE
  8
6
  6
CONTINUOUS
 10
109.250000
 20
51.307955
 11
109.250000
 21
50.957955
  0
LINE
  8
6
  6
CONTINUOUS
 10
110.883786
 20
51.307955
 11
110.883786
 21
50.957955
  0
LINE
  8
6
  6
CONTINUOUS
 10
112.757830
 20
51.307955
 11
112.757830
 21
50.957955
  0
LINE
  8
6
  6
CONTINUOUS
 10
114.755293
 20
51.307955
 11
114.755293
 21
50.957955
  0
LINE
  8
6
  6
CONTINUOUS
 10
106.300000
 20
50.957955
 11
106.300000
 21
51.307955
  0
LINE
  8
6
  6
CONTINUOUS
 10
117.300000
 20
50.957955
 11
117.300000
 21
51.307955
  0
TEXT
  8
6
  6
CONTINUOUS
 10
109.720053
 20
51.032955
 40
0.200000
  1
 15
  0
TEXT
  8
6
  6
CONTINUOUS
 10
113.452985
 20
51.038443
 40
0.200000
  1
  84
  0
TEXT
  8
6
  6
CONTINUOUS
 10
115.488898
 20
51.032581
 40
0.200000
  1
   150
  0
TEXT
  8
6
  6
CONTINUOUS
 10
111.165712
 20
51.047996
 40
0.200000
  1
    6.3
  0
LINE
  8
6
  6
CONTINUOUS
 10
109.250000
 20
50.957955
 11
109.250000
 21
50.607955
  0
LINE
  8
6
  6
CONTINUOUS
 10
110.883786
 20
50.957955
 11
110.883786
 21
50.607955
  0
LINE
  8
6
  6
CONTINUOUS
 10
112.757830
 20
50.957955
 11
112.757830
 21
50.607955
  0
LINE
  8
6
  6
CONTINUOUS
 10
114.755293
 20
50.957955
 11
114.755293
 21
50.607955
  0
LINE
  8
6
  6
CONTINUOUS
 10
106.300000
 20
50.607955
 11
106.300000
 21
50.957955
  0
LINE
  8
6
  6
CONTINUOUS
 10
117.300000
 20
50.607955
 11
117.300000
 21
50.957955
  0
TEXT
  8
6
  6
CONTINUOUS
 10
109.720053
 20
50.682955
 40
0.200000
  1
 16
  0
TEXT
  8
6
  6
CONTINUOUS
 10
113.452985
 20
50.688443
 40
0.200000
  1
  84
  0
TEXT
  8
6
  6
CONTINUOUS
 10
115.488898
 20
50.682581
 40
0.200000
  1
   147
  0
TEXT
  8
6
  6
CONTINUOUS
 10
111.165712
 20
50.697996
 40
0.200000
  1
    6.3
  0
LINE
  8
6
  6
CONTINUOUS
 10
109.250000
 20
50.607955
 11
109.250000
 21
50.257955
  0
LINE
  8
6
  6
CONTINUOUS
 10
110.883786
 20
50.607955
 11
110.883786
 21
50.257955
  0
LINE
  8
6
  6
CONTINUOUS
 10
112.757830
 20
50.607955
 11
112.757830
 21
50.257955
  0
LINE
  8
6
  6
CONTINUOUS
 10
114.755293
 20
50.607955
 11
114.755293
 21
50.257955
  0
LINE
  8
6
  6
CONTINUOUS
 10
106.300000
 20
50.257955
 11
106.300000
 21
50.607955
  0
LINE
  8
6
  6
CONTINUOUS
 10
117.300000
 20
50.257955
 11
117.300000
 21
50.607955
  0
TEXT
  8
6
  6
CONTINUOUS
 10
109.720053
 20
50.332955
 40
0.200000
  1
 17
  0
TEXT
  8
6
  6
CONTINUOUS
 10
113.452985
 20
50.338443
 40
0.200000
  1
  84
  0
TEXT
  8
6
  6
CONTINUOUS
 10
115.488898
 20
50.332581
 40
0.200000
  1
   176
  0
TEXT
  8
6
  6
CONTINUOUS
 10
111.165712
 20
50.347996
 40
0.200000
  1
    6.3
  0
LINE
  8
6
  6
CONTINUOUS
 10
109.250000
 20
50.257955
 11
109.250000
 21
49.907955
  0
LINE
  8
6
  6
CONTINUOUS
 10
110.883786
 20
50.257955
 11
110.883786
 21
49.907955
  0
LINE
  8
6
  6
CONTINUOUS
 10
112.757830
 20
50.257955
 11
112.757830
 21
49.907955
  0
LINE
  8
6
  6
CONTINUOUS
 10
114.755293
 20
50.257955
 11
114.755293
 21
49.907955
  0
LINE
  8
6
  6
CONTINUOUS
 10
106.300000
 20
49.907955
 11
106.300000
 21
50.257955
  0
LINE
  8
6
  6
CONTINUOUS
 10
117.300000
 20
49.907955
 11
117.300000
 21
50.257955
  0
TEXT
  8
6
  6
CONTINUOUS
 10
109.720053
 20
49.982955
 40
0.200000
  1
 18
  0
TEXT
  8
6
  6
CONTINUOUS
 10
113.452985
 20
49.988443
 40
0.200000
  1
  56
  0
TEXT
  8
6
  6
CONTINUOUS
 10
115.488898
 20
49.982581
 40
0.200000
  1
   176
  0
TEXT
  8
6
  6
CONTINUOUS
 10
111.165712
 20
49.997996
 40
0.200000
  1
    6.3
  0
LINE
  8
6
  6
CONTINUOUS
 10
109.250000
 20
49.907955
 11
109.250000
 21
49.557955
  0
LINE
  8
6
  6
CONTINUOUS
 10
110.883786
 20
49.907955
 11
110.883786
 21
49.557955
  0
LINE
  8
6
  6
CONTINUOUS
 10
112.757830
 20
49.907955
 11
112.757830
 21
49.557955
  0
LINE
  8
6
  6
CONTINUOUS
 10
114.755293
 20
49.907955
 11
114.755293
 21
49.557955
  0
LINE
  8
6
  6
CONTINUOUS
 10
106.300000
 20
49.557955
 11
106.300000
 21
49.907955
  0
LINE
  8
6
  6
CONTINUOUS
 10
117.300000
 20
49.557955
 11
117.300000
 21
49.907955
  0
LINE
  8
6
  6
CONTINUOUS
 10
106.300000
 20
49.557955
 11
117.300000
 21
49.557955
  0
LINE
  8
6
  6
CONTINUOUS
 10
106.300000
 20
48.557955
 11
106.300000
 21
47.245455
  0
LINE
  8
6
  6
CONTINUOUS
 10
117.300000
 20
48.557955
 11
117.300000
 21
47.245455
  0
LINE
  8
6
  6
CONTINUOUS
 10
106.300000
 20
48.557955
 11
117.300000
 21
48.557955
  0
LINE
  8
6
  6
CONTINUOUS
 10
106.300000
 20
47.245455
 11
117.300000
 21
47.245455
  0
TEXT
  8
6
  6
CONTINUOUS
 10
111.608841
 20
47.780306
 40
0.250000
  1
COMPR
  0
TEXT
  8
6
  6
CONTINUOUS
 10
115.237840
 20
47.780306
 40
0.250000
  1
PESO
  0
LINE
  8
6
  6
CONTINUOUS
 10
106.300000
 20
48.120455
 11
117.300000
 21
48.120455
  0
LINE
  8
6
  6
CONTINUOUS
 10
110.630000
 20
47.245455
 11
110.630000
 21
48.120455
  0
TEXT
  8
6
  6
CONTINUOUS
 10
109.643861
 20
47.349206
 40
0.200000
  1
(mm)
  0
TEXT
  8
6
  6
CONTINUOUS
 10
111.786146
 20
47.349206
 40
0.200000
  1
(m)
  0
TEXT
  8
6
  6
CONTINUOUS
 10
115.306442
 20
47.349206
 40
0.200000
  1
(kg)
  0
LINE
  8
6
  6
CONTINUOUS
 10
109.020000
 20
47.245455
 11
109.020000
 21
48.120455
  0
TEXT
  8
6
  6
CONTINUOUS
 10
109.630000
 20
47.776705
 40
0.250000
  1
BIT
  0
LINE
  8
6
  6
CONTINUOUS
 10
113.965000
 20
47.245455
 11
113.965000
 21
48.120455
  0
TEXT
  8
6
  6
CONTINUOUS
 10
109.480497
 20
48.214205
 40
0.250000
  1
RESUMO AÇO CA  50-60
  0
TEXT
  8
6
  6
CONTINUOUS
 10
108.019580
 20
47.776705
 40
0.250000
  1
AÇO
  0
LINE
  8
6
  6
CONTINUOUS
 10
113.965000
 20
47.245455
 11
113.965000
 21
46.895455
  0
LINE
  8
6
  6
CONTINUOUS
 10
110.630000
 20
46.895455
 11
110.630000
 21
47.245455
  0
LINE
  8
6
  6
CONTINUOUS
 10
106.300000
 20
46.895455
 11
106.300000
 21
47.245455
  0
LINE
  8
6
  6
CONTINUOUS
 10
117.300000
 20
46.895455
 11
117.300000
 21
47.245455
  0
LINE
  8
6
  6
CONTINUOUS
 10
109.020000
 20
47.245455
 11
109.020000
 21
46.895455
  0
TEXT
  8
6
  6
CONTINUOUS
 10
110.945479
 20
46.971029
 40
0.200000
  1
    1028
  0
TEXT
  8
6
  6
CONTINUOUS
 10
114.716535
 20
46.970456
 40
0.200000
  1
    257
  0
TEXT
  8
6
  6
CONTINUOUS
 10
109.129743
 20
46.980467
 40
0.200000
  1
    6.3
  0
TEXT
  8
6
  6
CONTINUOUS
 10
107.359661
 20
46.970455
 40
0.200000
  1
     50A
  0
LINE
  8
6
  6
CONTINUOUS
 10
113.965000
 20
46.895455
 11
113.965000
 21
46.545455
  0
LINE
  8
6
  6
CONTINUOUS
 10
110.630000
 20
46.545455
 11
110.630000
 21
46.895455
  0
LINE
  8
6
  6
CONTINUOUS
 10
106.300000
 20
46.545455
 11
106.300000
 21
46.895455
  0
LINE
  8
6
  6
CONTINUOUS
 10
117.300000
 20
46.545455
 11
117.300000
 21
46.895455
  0
LINE
  8
6
  6
CONTINUOUS
 10
109.020000
 20
46.895455
 11
109.020000
 21
46.545455
  0
TEXT
  8
6
  6
CONTINUOUS
 10
110.945479
 20
46.621028
 40
0.200000
  1
    1403
  0
TEXT
  8
6
  6
CONTINUOUS
 10
114.716535
 20
46.620455
 40
0.200000
  1
    561
  0
TEXT
  8
6
  6
CONTINUOUS
 10
109.129743
 20
46.630467
 40
0.200000
  1
    8  
  0
TEXT
  8
6
  6
CONTINUOUS
 10
107.359661
 20
46.620455
 40
0.200000
  1
     50A
  0
LINE
  8
6
  6
CONTINUOUS
 10
113.965000
 20
46.545455
 11
113.965000
 21
46.195454
  0
LINE
  8
6
  6
CONTINUOUS
 10
110.630000
 20
46.195454
 11
110.630000
 21
46.545455
  0
LINE
  8
6
  6
CONTINUOUS
 10
106.300000
 20
46.195454
 11
106.300000
 21
46.545455
  0
LINE
  8
6
  6
CONTINUOUS
 10
117.300000
 20
46.195454
 11
117.300000
 21
46.545455
  0
LINE
  8
6
  6
CONTINUOUS
 10
109.020000
 20
46.545455
 11
109.020000
 21
46.195455
  0
TEXT
  8
6
  6
CONTINUOUS
 10
110.945479
 20
46.271028
 40
0.200000
  1
    2919
  0
TEXT
  8
6
  6
CONTINUOUS
 10
114.716535
 20
46.270455
 40
0.200000
  1
   1839
  0
TEXT
  8
6
  6
CONTINUOUS
 10
109.129743
 20
46.280466
 40
0.200000
  1
   10  
  0
TEXT
  8
6
  6
CONTINUOUS
 10
107.359661
 20
46.270454
 40
0.200000
  1
     50A
  0
LINE
  8
6
  6
CONTINUOUS
 10
113.965000
 20
46.195454
 11
113.965000
 21
45.845454
  0
LINE
  8
6
  6
CONTINUOUS
 10
110.630000
 20
45.845454
 11
110.630000
 21
46.195454
  0
LINE
  8
6
  6
CONTINUOUS
 10
106.300000
 20
45.845454
 11
106.300000
 21
46.195454
  0
LINE
  8
6
  6
CONTINUOUS
 10
117.300000
 20
45.845454
 11
117.300000
 21
46.195454
  0
LINE
  8
6
  6
CONTINUOUS
 10
109.020000
 20
46.195454
 11
109.020000
 21
45.845454
  0
TEXT
  8
6
  6
CONTINUOUS
 10
110.945479
 20
45.921028
 40
0.200000
  1
    1902
  0
TEXT
  8
6
  6
CONTINUOUS
 10
114.716535
 20
45.920455
 40
0.200000
  1
   1902
  0
TEXT
  8
6
  6
CONTINUOUS
 10
109.129743
 20
45.930466
 40
0.200000
  1
   12.5
  0
TEXT
  8
6
  6
CONTINUOUS
 10
107.359661
 20
45.920454
 40
0.200000
  1
     50A
  0
LINE
  8
6
  6
CONTINUOUS
 10
113.965000
 20
45.845454
 11
113.965000
 21
45.495453
  0
LINE
  8
6
  6
CONTINUOUS
 10
110.630000
 20
45.495453
 11
110.630000
 21
45.845454
  0
LINE
  8
6
  6
CONTINUOUS
 10
106.300000
 20
45.495453
 11
106.300000
 21
45.845454
  0
LINE
  8
6
  6
CONTINUOUS
 10
117.300000
 20
45.495453
 11
117.300000
 21
45.845454
  0
LINE
  8
6
  6
CONTINUOUS
 10
109.020000
 20
45.845454
 11
109.020000
 21
45.495454
  0
TEXT
  8
6
  6
CONTINUOUS
 10
110.945479
 20
45.571027
 40
0.200000
  1
     394
  0
TEXT
  8
6
  6
CONTINUOUS
 10
114.716535
 20
45.570454
 40
0.200000
  1
    985
  0
TEXT
  8
6
  6
CONTINUOUS
 10
109.129743
 20
45.580466
 40
0.200000
  1
   20  
  0
TEXT
  8
6
  6
CONTINUOUS
 10
107.359661
 20
45.570454
 40
0.200000
  1
     50A
  0
LINE
  8
6
  6
CONTINUOUS
 10
113.965000
 20
45.495453
 11
113.965000
 21
45.145453
  0
LINE
  8
6
  6
CONTINUOUS
 10
110.630000
 20
45.145453
 11
110.630000
 21
45.495453
  0
LINE
  8
6
  6
CONTINUOUS
 10
106.300000
 20
45.145453
 11
106.300000
 21
45.495453
  0
LINE
  8
6
  6
CONTINUOUS
 10
117.300000
 20
45.145453
 11
117.300000
 21
45.495453
  0
LINE
  8
6
  6
CONTINUOUS
 10
109.020000
 20
45.495453
 11
109.020000
 21
45.145454
  0
TEXT
  8
6
  6
CONTINUOUS
 10
110.945479
 20
45.221027
 40
0.200000
  1
    2344
  0
TEXT
  8
6
  6
CONTINUOUS
 10
114.716535
 20
45.220454
 40
0.200000
  1
   9377
  0
TEXT
  8
6
  6
CONTINUOUS
 10
109.129743
 20
45.230465
 40
0.200000
  1
   25  
  0
TEXT
  8
6
  6
CONTINUOUS
 10
107.359661
 20
45.220453
 40
0.200000
  1
     50A
  0
LINE
  8
6
  6
CONTINUOUS
 10
106.300000
 20
45.145453
 11
117.300000
 21
45.145453
  0
LINE
  8
6
  6
CONTINUOUS
 10
106.300000
 20
44.707953
 11
106.300000
 21
45.145453
  0
LINE
  8
6
  6
CONTINUOUS
 10
117.300000
 20
44.707953
 11
117.300000
 21
45.145453
  0
LINE
  8
6
  6
CONTINUOUS
 10
106.300000
 20
45.145453
 11
117.300000
 21
45.145453
  0
LINE
  8
6
  6
CONTINUOUS
 10
117.300000
 20
44.707953
 11
106.300000
 21
44.707953
  0
TEXT
  8
6
  6
CONTINUOUS
 10
106.592829
 20
44.801703
 40
0.250000
  1
Peso Total        50A =
  0
TEXT
  8
6
  6
CONTINUOUS
 10
113.957004
 20
44.801703
 40
0.250000
  1
  14921 kg
  0
LINE
  8
6
  6
CONTINUOUS
 10
106.300000
 20
44.707953
 11
117.300000
 21
44.707953
  0
LINE
  8
6
  6
CONTINUOUS
 10
0.000002
 20
0.000000
 11
0.000002
 21
0.000000
  0
LINE
  8
6
  6
CONTINUOUS
 10
-0.000002
 20
0.000000
 11
118.799998
 21
0.000000
  0
LINE
  8
6
  6
CONTINUOUS
 10
118.799998
 20
0.000000
 11
118.799998
 21
54.599995
  0
LINE
  8
6
  6
CONTINUOUS
 10
118.799998
 20
59.400000
 11
-0.000002
 21
59.400000
  0
LINE
  8
6
  6
CONTINUOUS
 10
-0.000002
 20
54.599995
 11
-0.000002
 21
0.000000
  0
LINE
  8
6
  6
CONTINUOUS
 10
0.000002
 20
0.000000
 11
0.000002
 21
0.000000
  0
LINE
  8
6
  6
CONTINUOUS
 10
-0.000006
 20
-0.000001
 11
-0.000006
 21
-0.000001
  0
LINE
  8
6
  6
CONTINUOUS
 10
-0.000006
 20
-0.000001
 11
-0.000006
 21
-0.000001
  0
LINE
  8
6
  6
CONTINUOUS
 10
-0.000006
 20
-0.000001
 11
-0.000006
 21
-0.000001
  0
LINE
  8
6
  6
CONTINUOUS
 10
-0.000006
 20
30.000002
 11
2.499994
 21
30.000002
  0
LINE
  8
6
  6
CONTINUOUS
 10
-0.000006
 20
15.000000
 11
2.496278
 21
15.000000
  0
LINE
  8
6
  6
CONTINUOUS
 10
-0.000006
 20
28.500002
 11
2.499994
 21
30.000002
  0
LINE
  8
6
  6
CONTINUOUS
 10
-0.000006
 20
1.499999
 11
2.499994
 21
-0.000001
  0
LINE
  8
6
  6
CONTINUOUS
 10
100.299991
 20
58.410048
 11
100.299991
 21
59.400000
  0
LINE
  8
6
  6
CONTINUOUS
 10
81.799991
 20
58.410033
 11
81.799991
 21
59.400000
  0
LINE
  8
6
  6
CONTINUOUS
 10
63.299991
 20
58.410017
 11
63.299991
 21
59.400000
  0
LINE
  8
6
  6
CONTINUOUS
 10
44.799991
 20
58.410010
 11
44.799991
 21
59.400000
  0
LINE
  8
6
  6
CONTINUOUS
 10
81.799991
 20
0.000000
 11
81.799991
 21
0.995346
  0
LINE
  8
6
  6
CONTINUOUS
 10
63.299991
 20
0.000000
 11
63.299991
 21
1.000000
  0
LINE
  8
6
  6
CONTINUOUS
 10
44.799991
 20
0.000000
 11
44.799991
 21
1.001063
  0
LINE
  8
6
  6
CONTINUOUS
 10
0.000002
 20
0.000000
 11
0.000002
 21
0.000000
  0
LINE
  8
6
  6
CONTINUOUS
 10
-0.000006
 20
-0.000001
 11
-0.000006
 21
-0.000001
  0
LINE
  8
6
  6
CONTINUOUS
 10
-0.000006
 20
-0.000001
 11
-0.000006
 21
-0.000001
  0
LINE
  8
6
  6
CONTINUOUS
 10
-0.000002
 20
54.599995
 11
-0.000002
 21
59.400000
  0
LINE
  8
6
  6
CONTINUOUS
 10
118.799998
 20
54.599995
 11
118.799998
 21
59.400000
  0
LINE
  8
6
  6
CONTINUOUS
 10
100.299998
 20
0.000000
 11
100.299998
 21
0.989998
  0
LINE
  8
6
  6
CONTINUOUS
 10
117.789592
 20
30.000002
 11
118.799998
 21
30.000002
  0
LINE
  8
6
  6
CONTINUOUS
 10
21.000000
 20
58.408949
 11
21.000000
 21
59.398940
  0
LINE
  8
6
  6
CONTINUOUS
 10
21.000000
 20
-0.001062
 11
21.000000
 21
1.000000
  0
POLYLINE
  8
8
  6
CONTINUOUS
 66
     1
  0
VERTEX
  8
8
  6
CONTINUOUS
 10
2.499998
 20
58.400000
  0
VERTEX
  8
8
  6
CONTINUOUS
 10
117.799998
 20
58.400000
  0
VERTEX
  8
8
  6
CONTINUOUS
 10
117.799998
 20
1.000000
  0
VERTEX
  8
8
  6
CONTINUOUS
 10
2.499998
 20
1.000000
  0
VERTEX
  8
8
  6
CONTINUOUS
 10
2.499998
 20
58.400000
  0
SEQEND
  8
8
  6
CONTINUOUS
  0
LINE
  8
6
  6
CONTINUOUS
 10
32.899995
 20
58.410010
 11
32.899995
 21
59.400000
  0
LINE
  8
6
  6
CONTINUOUS
 10
32.899995
 20
0.000000
 11
32.899995
 21
1.001063
  0
LINE
  8
6
  6
CONTINUOUS
 10
2.499998
 20
8.750000
 11
81.799998
 21
8.750000
  0
LINE
  8
6
  6
CONTINUOUS
 10
81.799998
 20
1.000000
 11
81.799998
 21
8.750000
  0
LINE
  8
6
  6
CONTINUOUS
 10
99.799998
 20
1.000000
 11
99.799998
 21
8.750000
  0
LINE
  8
6
  6
CONTINUOUS
 10
100.299998
 20
1.750000
 11
117.799998
 21
1.750000
  0
LINE
  8
6
  6
CONTINUOUS
 10
113.299998
 20
3.250000
 11
113.299998
 21
5.750000
  0
LINE
  8
6
  6
CONTINUOUS
 10
113.424998
 20
1.000000
 11
113.424998
 21
1.750000
  0
LINE
  8
6
  6
CONTINUOUS
 10
109.049998
 20
1.000000
 11
109.049998
 21
3.250000
  0
LINE
  8
6
  6
CONTINUOUS
 10
104.674998
 20
1.000000
 11
104.674998
 21
1.750000
  0
TEXT
  8
6
  6
CONTINUOUS
 10
100.499998
 20
1.500000
 40
0.150000
  1
DATA
  0
TEXT
  8
6
  6
CONTINUOUS
 10
104.824998
 20
1.500000
 40
0.150000
  1
ESCALA
  0
TEXT
  8
6
  6
CONTINUOUS
 10
109.199998
 20
1.500000
 40
0.150000
  1
DESENHO
  0
TEXT
  8
6
  6
CONTINUOUS
 10
113.574998
 20
1.500000
 40
0.150000
  1
ARQUIVO
  0
TEXT
  8
6
  6
CONTINUOUS
 10
109.199998
 20
2.975000
 40
0.150000
  1
RESPONSÁVEL TÉCNICO
  0
TEXT
  8
6
  6
CONTINUOUS
 10
113.449998
 20
5.475000
 40
0.150000
  1
PRANCHA Nº
  0
TEXT
  8
6
  6
CONTINUOUS
 10
100.499998
 20
5.475000
 40
0.150000
  1
REFERÊNCIA
  0
TEXT
  8
6
  6
CONTINUOUS
 10
100.499998
 20
6.475000
 40
0.150000
  1
FINALIDADE
  0
TEXT
  8
6
  6
CONTINUOUS
 10
100.499998
 20
2.975000
 40
0.150000
  1
EMPRESA RESPONSÁVEL
  0
TEXT
  8
6
  6
CONTINUOUS
 10
100.499998
 20
0.700000
 40
0.150000
  1
DIREITOS AUTORAIS RESERVADOS QUALQUER MODIFICAÇÃO DEVERÁ TER AUTORIZAÇÃO DO IPPUC
  0
TEXT
  8
6
  6
CONTINUOUS
 10
101.099998
 20
8.090000
 40
0.320000
  1
MUNICÍPIO DE CURITIBA
  0
TEXT
  8
6
  6
CONTINUOUS
 10
101.099998
 20
7.075000
 40
0.350000
  1
INSTITUTO DE PESQUISA E PLANEJAMENTO URBANO DE CURITIBA
  0
LINE
  8
6
  6
CONTINUOUS
 10
81.799998
 20
5.725000
 11
99.799998
 21
5.725000
  0
LINE
  8
6
  6
CONTINUOUS
 10
81.799998
 20
4.375000
 11
99.799998
 21
4.375000
  0
LINE
  8
6
  6
CONTINUOUS
 10
81.799998
 20
3.025000
 11
99.799998
 21
3.025000
  0
LINE
  8
6
  6
CONTINUOUS
 10
81.799998
 20
2.012500
 11
87.799998
 21
2.012500
  0
LINE
  8
6
  6
CONTINUOUS
 10
87.799998
 20
1.000000
 11
87.799998
 21
8.750000
  0
LINE
  8
6
  6
CONTINUOUS
 10
87.799998
 20
6.400000
 11
99.799998
 21
6.400000
  0
LINE
  8
6
  6
CONTINUOUS
 10
87.799998
 20
5.050000
 11
99.799998
 21
5.050000
  0
LINE
  8
6
  6
CONTINUOUS
 10
87.799998
 20
3.700000
 11
99.799998
 21
3.700000
  0
LINE
  8
6
  6
CONTINUOUS
 10
97.799998
 20
2.350000
 11
97.799998
 21
7.075000
  0
LINE
  8
6
  6
CONTINUOUS
 10
95.799998
 20
1.000000
 11
95.799998
 21
2.350000
  0
LINE
  8
6
  6
CONTINUOUS
 10
91.799998
 20
1.000000
 11
91.799998
 21
2.350000
  0
TEXT
  8
6
  6
CONTINUOUS
 10
81.999998
 20
8.475000
 40
0.150000
  1
PREFEITO MUNICIPAL
  0
TEXT
  8
6
  6
CONTINUOUS
 10
81.999998
 20
6.800000
 40
0.150000
  1
PRESIDENTE IPPUC
  0
TEXT
  8
6
  6
CONTINUOUS
 10
81.999998
 20
5.475000
 40
0.150000
  1
SUPERVISÃO DE PLANEJAMENTO
  0
TEXT
  8
6
  6
CONTINUOUS
 10
81.999998
 20
4.125000
 40
0.150000
  1
COORDENAÇÃO DE MOBILIDADE E TRANSPORTE
  0
TEXT
  8
6
  6
CONTINUOUS
 10
81.999998
 20
2.775000
 40
0.150000
  1
SETOR DE PROJETOS VIÁRIOS
  0
TEXT
  8
6
  6
CONTINUOUS
 10
81.999998
 20
1.762500
 40
0.150000
  1
RESPONSÁVEL PROJETO IPPUC
  0
TEXT
  8
6
  6
CONTINUOUS
 10
87.949998
 20
2.050000
 40
0.180000
  1
CONFERIDO
  0
TEXT
  8
6
  6
CONTINUOUS
 10
91.949998
 20
2.050000
 40
0.180000
  1
APROVADO
  0
TEXT
  8
6
  6
CONTINUOUS
 10
95.949998
 20
2.050000
 40
0.180000
  1
VISTO
  0
TEXT
  8
6
  6
CONTINUOUS
 10
87.999998
 20
5.987500
 40
0.150000
  1
01
  0
TEXT
  8
6
  6
CONTINUOUS
 10
87.999998
 20
5.312500
 40
0.150000
  1
02
  0
TEXT
  8
6
  6
CONTINUOUS
 10
87.999998
 20
4.637500
 40
0.150000
  1
03
  0
TEXT
  8
6
  6
CONTINUOUS
 10
87.999998
 20
3.962500
 40
0.150000
  1
04
  0
TEXT
  8
6
  6
CONTINUOUS
 10
87.999998
 20
3.287500
 40
0.150000
  1
05
  0
TEXT
  8
6
  6
CONTINUOUS
 10
87.999998
 20
2.612500
 40
0.150000
  1
06
  0
TEXT
  8
6
  6
CONTINUOUS
 10
87.999998
 20
6.637500
 40
0.200000
  1
Nº
  0
TEXT
  8
6
  6
CONTINUOUS
 10
90.849998
 20
6.637500
 40
0.200000
  1
DISCRIMINAÇÃO DAS REVISÕES
  0
TEXT
  8
6
  6
CONTINUOUS
 10
98.419998
 20
6.637500
 40
0.200000
  1
DATA
  0
TEXT
  8
6
  6
CONTINUOUS
 10
81.999998
 20
1.200000
 40
0.250000
  1
MARCIO A. DE T. TEIXEIRA
  0
TEXT
  8
6
  6
CONTINUOUS
 10
81.999998
 20
7.425000
 40
0.300000
  1
LUCIANO DUCCI
  0
TEXT
  8
6
  6
CONTINUOUS
 10
81.999998
 20
2.212500
 40
0.250000
  1
MARCIO A. DE T. TEIXEIRA
  0
TEXT
  8
6
  6
CONTINUOUS
 10
81.999998
 20
3.225000
 40
0.250000
  1
MARIA MIRANDA
  0
TEXT
  8
6
  6
CONTINUOUS
 10
81.999998
 20
4.575000
 40
0.250000
  1
RICARDO BINDO
  0
TEXT
  8
6
  6
CONTINUOUS
 10
81.999998
 20
5.925000
 40
0.250000
  1
CLÉVER U.T. DE ALMEIDA
  0
TEXT
  8
6
  6
CONTINUOUS
 10
87.999998
 20
7.528500
 40
0.768000
  1
IPPUC
  0
TEXT
  8
6
  6
CONTINUOUS
 10
91.499998
 20
7.528500
 40
0.275000
  1
SETOR DE PROJETOS VIÁRIOS
  0
LINE
  8
6
  6
CONTINUOUS
 10
109.049998
 20
2.500000
 11
117.799998
 21
2.500000
  0
TEXT
  8
6
  6
CONTINUOUS
 10
109.199998
 20
2.250000
 40
0.150000
  1
CO-AUTOR
  0
LINE
  8
6
  6
CONTINUOUS
 10
100.299998
 20
8.750000
 11
117.799998
 21
8.750000
  0
LINE
  8
6
  6
CONTINUOUS
 10
100.299998
 20
7.750000
 11
117.799998
 21
7.750000
  0
LINE
  8
6
  6
CONTINUOUS
 10
100.299998
 20
6.750000
 11
117.799998
 21
6.750000
  0
LINE
  8
6
  6
CONTINUOUS
 10
100.299998
 20
5.750000
 11
117.799998
 21
5.750000
  0
LINE
  8
6
  6
CONTINUOUS
 10
100.299998
 20
3.250000
 11
117.799998
 21
3.250000
  0
LINE
  8
6
  6
CONTINUOUS
 10
87.799998
 20
2.350000
 11
99.799998
 21
2.350000
  0
LINE
  8
6
  6
CONTINUOUS
 10
81.799998
 20
7.075000
 11
99.799998
 21
7.075000
  0
LINE
  8
6
  6
CONTINUOUS
 10
81.799998
 20
8.750000
 11
99.799998
 21
8.750000
  0
TEXT
  8
6
  6
CONTINUOUS
 10
102.673864
 20
2.386636
 40
0.133184
  1
215.jpg
  0
POLYLINE
  8
6
  6
CONTINUOUS
 66
     1
  0
VERTEX
  8
6
  6
CONTINUOUS
 10
102.175151
 20
1.853899
  0
VERTEX
  8
6
  6
CONTINUOUS
 10
110.154569
 20
1.853899
  0
VERTEX
  8
6
  6
CONTINUOUS
 10
110.154569
 20
2.919373
  0
VERTEX
  8
6
  6
CONTINUOUS
 10
102.175151
 20
2.919373
  0
VERTEX
  8
6
  6
CONTINUOUS
 10
102.175151
 20
1.853899
  0
SEQEND
  8
6
  6
CONTINUOUS
  0
TEXT
  8
6
  6
CONTINUOUS
 10
109.199998
 20
1.150000
 40
0.200000
  1
MAURO
  0
TEXT
  8
6
  6
CONTINUOUS
 10
101.143533
 20
4.566548
 40
0.320000
  1
PROJETO DE O.A.E.
  0
TEXT
  8
6
  6
CONTINUOUS
 10
109.199998
 20
1.900000
 40
0.200000
  1
SERGIO CUNHA - CREA 3882/D-PR
  0
TEXT
  8
6
  6
CONTINUOUS
 10
100.640349
 20
17.895151
 40
0.909725
  1
CARIMBO - IPPUC.jpg
  0
POLYLINE
  8
6
  6
CONTINUOUS
 66
     1
  0
VERTEX
  8
6
  6
CONTINUOUS
 10
100.202849
 20
8.797903
  0
VERTEX
  8
6
  6
CONTINUOUS
 10
117.702849
 20
8.797903
  0
VERTEX
  8
6
  6
CONTINUOUS
 10
117.702849
 20
26.992398
  0
VERTEX
  8
6
  6
CONTINUOUS
 10
100.202849
 20
26.992398
  0
VERTEX
  8
6
  6
CONTINUOUS
 10
100.202849
 20
8.797903
  0
SEQEND
  8
6
  6
CONTINUOUS
  0
TEXT
  8
6
  6
CONTINUOUS
 10
104.824998
 20
1.150000
 40
0.200000
  1
INDICADAS
  0
TEXT
  8
6
  6
CONTINUOUS
 10
64.397652
 20
7.930330
 40
0.400000
  1
NOTAS:
  0
TEXT
  8
6
  6
CONTINUOUS
 10
64.509948
 20
7.015157
 40
0.220000
  1
01. VERIFICAR AS MEDIDAS NA OBRA.
  0
LINE
  8
6
  6
CONTINUOUS
 10
63.299980
 20
0.989998
 11
63.299980
 21
8.739998
  0
TEXT
  8
6
  6
CONTINUOUS
 10
101.143533
 20
3.953334
 40
0.320000
  1
PISTA 1 -ARMADURA DAS LAJES
  0
TEXT
  8
6
  6
CONTINUOUS
 10
64.509948
 20
6.272238
 40
0.220000
  1
02. CONCRETO ADOTADO : C20 - CONTENÇÕES ; FATOR A/C < 0,65
  0
TEXT
  8
6
  6
CONTINUOUS
 10
68.263067
 20
5.763071
 40
0.220000
  1
C25 - ESTACAS          ; FATOR A/C < 0,60
  0
TEXT
  8
6
  6
CONTINUOUS
 10
68.263067
 20
5.253903
 40
0.220000
  1
C30 - SUPERESTRUTURA ; FATOR A/C < 0,55
  0
TEXT
  8
6
  6
CONTINUOUS
 10
64.509948
 20
4.352200
 40
0.220000
  1
03. COBRIMENTO DAS ARMADURAS = 30 mm
  0
TEXT
  8
6
  6
CONTINUOUS
 10
116.547571
 20
4.105188
 40
0.450000
  1
.08
  0
TEXT
  8
6
  6
CONTINUOUS
 10
109.199998
 20
2.650000
 40
0.200000
  1
CARLOS VALÉRIO AVAIS DA ROCHA - CREA 21.833/D-PR
  0
TEXT
  8
6
  6
CONTINUOUS
 10
113.423330
 20
4.105188
 40
0.500000
  1
OAEPT06
  0
TEXT
  8
6
  6
CONTINUOUS
 10
113.574998
 20
1.150000
 40
0.200000
  1
OAEPT-06_08.DWG
  0
TEXT
  8
6
  6
CONTINUOUS
 10
101.099998
 20
5.937500
 40
0.350000
  1
AV. COMENDADOR FRANCO - SUBLOTE 2.3
  0
TEXT
  8
6
  6
CONTINUOUS
 10
100.499998
 20
1.150000
 40
0.200000
  1
NOVEMBRO/2011
  0
ENDSEC
  0
EOF
